Oops, an error
Loading. Please wait.

May God tab

475 views 9 this week
no commentswrite comment
1 2 3 4 5
x 3
add to favorites
×
Save as Personal and add changes to this tab that will be seen only by you. Learn more ›
×
You can save this tab as Personal to edit and correct it or add notes. All changes will be seen only by you. Learn more »
launch autoscroll
font size
0
reset
how to read this tab
guitar tuner
edit
Autoscroll
slow
fast
+/-
esc
set tempo
stop
Difficulty
About this tab version
Please do not remove my name, seriously. Please. Was this info helpful? Yes No
TABLATURE

for a Guitar in Standard Tuning. I list the riffs and then the chords and where the riffs go.

RIFF 1  
Play with a sharp sound. The 'u' and 'd' are for stroke down and up.
Play with Verse chords including Riff 2.


Main riff

         u  d  u  d  u   d  u  d           u  d  u  d  u   d  u  d
e|-------5--5--5--5--6---x--x--x----|------8--8--8--8--6---x--x--x----|
b|-------6--6--6--6--6---x--x--x----|------6--6--6--6--6---x--x--x----|
g|----------------------------------|---------------------------------|
d|----------------------------------|---------------------------------|
a|----------------------------------|---------------------------------|
E|----------------------------------|---------------------------------|

Outro version

         u  d  u  d  u   d  u  d           u  d  u  d  u   d    
e|-------5--5--5--5--6---x--x--x----|------8--8--8--8--6---6---------||
b|-------6--6--6--6--6---x--x--x----|------6--6--6--6--6---6---------||
g|----------------------------------|----------------------7---------||
d|----------------------------------|----------------------x---------||
a|----------------------------------|--------------------------------||
E|----------------------------------|--------------------------------||


RIFF 2 

e|-----3---0---1---||
b|-----3---1---3---||
g|-----3---2---3---||
d|-----5---2---3---||
a|-----5---0---1---||
E|-----3---x---x---||

This are the Chords Gm Am Bb in a sequence. This is played by the piano too.


RIFF 3 
Probably best if you use the neck hambucker.

e|---------------------------------------10--10--10--10---13--13--13-----||
b|---10--10--10--11--11--11--13--13--13----------------------------------||
g|-----------------------------------------------------------------------||
d|-----------------------------------------------------------------------||
a|-----------------------------------------------------------------------||
E|-----------------------------------------------------------------------||


RIFF 4
      
     Bb
     u  d  u  d  u  d  u  d  u  d   u  d   u   d
e|---3--x--x--3--x--x--3--x--x--3---x--3---3---3---|
b|---4--x--x--6--x--x--4--x--x--4---x--4---4---4---|
g|---3--x--x--3--x--x--3--x--x--3---x--3---3---3---|
d|--(5) x--x-(5)-x--x-(5)-x--x-(5)--x-(5)-(5)-(5)--|
a|---x--x--x--x--x--x--x--x--x--x---x--x---x---x---|
E|---x--x--x--x--x--x--x--x--x--x---x--x---x---x---|


     Cm
e|---3--x--x--3--x--x--3--x--x--3---x--3---3---3---|
b|---4--x--x--6--x--x--4--x--x--4---x--4---4---4---|
g|---5--x--x--5--x--x--5--x--x--5---x--5---5---5---|
d|--(5) x--x-(5)-x--x-(5)-x--x-(5)--x-(5)-(5)-(5)--|
a|---x--x--x--x--x--x--x--x--x--x---x--x---x---x---|
E|---x--x--x--x--x--x--x--x--x--x---x--x---x---x---|


     Gm
e|---3--x--x--3--x--x--3--x--x--3---x--3---3---3---|
b|---3--x--x--3--x--x--3--x--x--3---x--3---3---3---|
g|---3--x--x--3--x--x--3--x--x--3---x--3---3---3---|
d|--(5) x--x-(5)-x--x-(5)-x--x-(5)--x-(5)-(5)-(5)--|
a|---x--x--x--x--x--x--x--x--x--x---x--x---x---x---|
E|---x--x--x--x--x--x--x--x--x--x---x--x---x---x---|

     Bb
e|---6--x--x--6--x--x--6--x--x--6-----6---6---6---||
b|---6--x--x--6--x--x--6--x--x--6-----6---6---6---||
g|---7--x--x--7--x--x--7--x--x--7-----7---7---7---||
d|--(8) x--x-(8)-x--x-(8)-x--x-(8)---(8)-(8)-(8)--||
a|---x--x--x--x--x--x--x--x--x--x-----x---x---x---||
E|---x--x--x--x--x--x--x--x--x--x-----x---x---x---||



RIFF 5

Arpegio during VERSE 2

    Gm         Bb             Cm        F       Gm        Bb             Cm          F
e|-----3---|-----3------1--|----3----|----1--|---3-----|---3-----1----|---3-----|----1----||
b|---3-----|---3------1----|--4------|--1----|-----3---|-----3-----1--|-----4---|------1--||
g|---------|---------------|---------|-------|---------|--------------|---------|---------||
d|---------|---------------|---------|-------|---------|--------------|---------|---------||
a|---------|---------------|---------|-------|---------|--------------|---------|---------||
E|---------|---------------|---------|-------|---------|--------------|---------|---------||


LYRICS AND CHORDS



** INTRO **


Riff 1 x 8
(With Verse Chords and 2nd and 6th time with Riff 2)




** VERSE **


Gm
History

Bb (Riff 2)
Love, war and insanity

Cm
you made me belive

F
its different for you and me

Gm
I'm down on my knees

Bb (Riff 2)
pray it on baby please

Cm
say that its true

F
I stay alive think of you


** CHORUS **

Fm
May God
                    Bb               
punish who tries to separate you and I

Gm
May God
                    Cm
punish who tries to separate you and I

Fm
May God

                    Bb
punish who tries to separate you and I

Gm
May God
                    Cm
punish who tries to separate you and I


** INTERLUDE **


Riff 1 x 4




** VERSE 2 **

Gm
You say that you're mine

e|-------3--------|
b|----3-----------|
g|----------------|
d|----------------|
a|----------------|
E|----------------|
(Play when G is strummed)

Bb (Riff 2)
forever is a long time
                           Cm
e|------3--------1------------3|
b|---3--------1------------4---|
g|-----------------------------|
d|-----------------------------|
a|-----------------------------|
E|-----------------------------|
(Tie up with next line)                      

Cm
and there's looks in you

F
got boys writings songs about you

e|-----1---------|
b|---1-----------|
g|---------------|
d|---------------|
a|---------------|
E|---------------|


Gm
then you tell me
e|--3----------------|
b|-----3-------------|
g|-------------------|
d|-------------------|
a|-------------------|
E|-------------------|

 Bb (Riff 2)
don't listen to the rumors
                                Cm
e|---3--------1-----------------3-----|
b|-----3---------1-----------------4--|
g|------------------------------------|
d|------------------------------------|
a|------------------------------------|
E|------------------------------------|
(Tie up with the next line)

Cm
even though the say

F
that tomorrow you'll walk away
e|----1-----------|
b|-------1--------|
g|----------------|
d|----------------|
a|----------------|
E|----------------|




** CHORUS **

Fm
May God

                     Bb
punish who tries to separate you and I

Gm
May God

                    Cm
punish who tries to separate you and I

Fm
May God

                    Bb
punish who tries to separate you and I

Gm
May God

(Strum dead strings in this last line)
                    Cm
punish who tries to separate you and I



**INTERLUDE 2 **

Riff 4 Play once
Riff 2 once in last part of Riff 4 and continue to LAST VERSE




** LAST VERSE **

(Play Riff 4 until  the end, chords are to follow Riff 4)


Bb (3rd fret)
last night

Cm
when you turned of your phone

Gm
dark streets

Bb (6th fret)
let me to your home

Bb (3rd fret)
you could save me

Cm
this burning in my soul

Gm
tell me

Bb (6th fret)
will you be home alone?




** OUTRO **

(Play Riff 4 twice)
Riff 1 x 8

MARGRETE GRANUM

            
            
Suggest correction
Creating personal tab
Creating personal tab
You can edit any tab online and save it as your Personal.

You can edit, replace or remove any tab part or add personal notes – all changes will be seen only by you.

Personal tabs can be accessed anytime from any device, even offline.
Learn more »
Give kudos to tab author, rate the tab!
1 2 3 4 5
comments
print report bad tab
guest
Wanna post a correction for this tab? Suggest correction