Oops, an error
Loading. Please wait.

Restless Bass Tab

version 2
version 2

Whole song

696 views 3 this week
no commentswrite comment
1 2 3 4 5
3 more votes to show rating
add to favorites
launch autoscroll
font size
0
reset
guitar tuner
Autoscroll
slow
fast
+/-
esc
set tempo
stop
Help us to improve Ultimate-Guitar.com Take our survey!
×
Author
Difficulty
intermediate
Kakkmaddafakka - Restless

Intro (00.05)

G|--------|
D|--------|
A|--------|
E|--12\0--|


G|---------------------------------------------------------------| x 2
D|---------------------------------------------------------------|
A|--------------2---2-2-4-2--2--0-2-2-4-2-4-4-4-2----------------|
E|--2-2-5-2-5-5---5-------------------------------2-2-5-2--2--0--|


Verse

G|---------------------------------------------------------------| x 2
D|---------------------------------------------------------------|
A|--------------2---2-2-4-2--2--0-2-2-4-2-4-4-4-2----------------|
E|--2-2-5-2-5-5---5-------------------------------2-2-5-2--2--0--|


G|----------------------4------4------4-------6-------------------| x 2
D|-----4-------7--------------------------------------------------|
A|------------------2-2---2--2---0-2-----2-4----------------------|
E|--2-----2-5-----5------------------------------5-2-2-5-2--2--0--|


Chorus

G|-------------------------------------------------------------------| x 4
D|-------------------------------------------------------------------|
A|------------------5-5-5-5-5-5-5-5-5-5-5-5-5-5-4-4-2-2-2-2-2-2-2-2--|
E|--2-2-2-2-2-2-2-2--------------------------------------------------|


Rest


Play Verse (01.13)


Play Chorus


Rest


Bridge (02.10)

G|----------------------------------6-----------------------|
D|-----------------------------------------------------2----|
A|----------------------------4--4----4----2--2--0-2-4---4--|
E|--2--2--0-2----2--2--0-2----------------------------------|


Play Chorus
Suggest correction
Give kudos to tab author, rate the tab!
1 2 3 4 5
comments
print report bad tab
guest
You may want to rate the tab now too:
select rating
Wanna post a correction for this tab? Suggest correction