Oops, an error
Loading. Please wait.

The Hurt Bass Tab

788 views 12 this week
no commentswrite comment
1 2 3 4 5
please rate
add to favorites
launch autoscroll
font size
0
reset
guitar tuner
Tab Pro tools
  • play this tab
  • loop segment
  • change instrument
  • show fretboard
  • metronome
×
Best way to learn
"The Hurt"
Autoscroll
slow
fast
+/-
esc
set tempo
stop
Contributor
Hurt
Kalapana
Tabbed by: avill616@yahoo.com

Intro
G|-6h7-9---6h7-6h7-6h7-9---6h7-9/-|
D|--------------------------------|
A|--------------------------------|
E|--------------------------------|

Verse1
G|-----------------------------7--7-7-|-----------------------------|
D|--------7---------------------7-----|-----2--0-2-2----------------|
A|----------0-4--0-4-4--4-5--5--------|-2--2---------2--------------|
E|-5--0h5-----------------------------|----------------2h4-5--0-5-5-|

G|----------------------6h7-6h7-9--9-6h7-9-|
D|----4--4--4------------------------------|
A|---4--4--4---7--5h7-7--------------------|
E|-2---------------------------------------|

Verse1
G|-----------------------------7--7-7-|-----------------------------|
D|--------7---------------------7-----|-----2--0-2-2----------------|
A|----------0-4--0-4-4--4-5--5--------|-2--2---------2--------------|
E|-5--0h5-----------------------------|----------------2h4-5--0-5-5-|

G|----------------------6h7-6h7-9--9-7h9-9-9h11-9h11----|
D|----4--4--4----------------------------------------11-|
A|---4--4--4---7--5h7-7---------------------------------|
E|-2----------------------------------------------------|

Chorus 
G|----------------|      |-------------------|
D|--------0h7-0h7-|      |-------------------|
A|-----5----------| 3x   |-7-5h7--7--7h9-7h9-|
E|-5--5-----------|      |-------------------|

Chorus 
G|----------------|      |-------6h7-6h7-9--9-6h7-9-|
D|--------0h7-0h7-|      |--------------------------|
A|-----5----------| 3x   |-7-5h7--------------------|
E|-5--5-----------|      |--------------------------|

Repeat verse2
Repeat chorus

Bridge  
G|--------------------------------------------------------------|
D|--------------------------------------------------------7/9-9-|
A|-5--0-5-5--5-5h7-5h7-5--3-1h3-1h3-----------2--0-2-2/7--------|
E|-----------------------------------2--0-2-2-------------------|

G|-6h7-6h7-9--9-7h9--6h7-9--7h9--6h7-6h7-9--6h7-9-|
D|------------------------------------------------|
A|------------------------------------------------|
E|------------------------------------------------|
Repeat verse1
Repeat chorus

Interlude 
G|-6h7-9-7h9--6h7-6h7-9--9-6h7-9-9h11-9h11----|
D|-----------------------------------------11-|
A|--------------------------------------------|
E|--------------------------------------------|

Outro
G|----------------|      
D|--------0h7-0h7-|      
A|-----5----------|  
E|-5--5-----------|  till fade
comments
We did not receive enough feedback on this tab! Please rate:
print report bad tab
1 2 3 4 5
I want to post or [tab]
guest
You may want to rate the tab now too:
select rating
Please do not post tabs as comments. Select "correction" instead!