Oops, an error
Loading. Please wait.

Tianamen Tab

1,120 views 1 this week
no commentswrite comment
1 2 3 4 5
please rate
add to favorites
launch autoscroll
font size
0
reset
how to read this tab
guitar tuner
Tab Pro tools
  • play this tab
  • loop segment
  • change instrument
  • show fretboard
  • metronome
×
Best way to learn
"Tianamen"
Autoscroll
slow
fast
+/-
esc
set tempo
stop
Contributor
intro

E------------------------------|
B------------------------------|
G------------------------------|
D--4-4-----4-4-----7-7-----8-8-|  X2
A--4-4-----4-4-----7-7-----8-8-|
E--2-2-----2-2-----5-5-----6-6-|

E----------------------------------------------------------------------|
B----------------------------------------------------------------------|
G------4p2h4p2----------4p2h4p2----------4p2h4p2----------4p2h4p2------|
D--4-4--------4p2h4-4-4--------4p2h4-7-7--------4p2h4-8-8--------4p2h4-|X2
A--4-4--------------4-4--------------7-7--------------8-8--------------|
E--2-2--------------2-2--------------5-5--------------6-6--------------|

verse

G-------------------------------------9-----9----------------------|
D-----4-----4---4---------------------9-----9---9------------------|
A-----4-----4---4-----------------7-7-7-7-7-7-7-9-------------9/7--| X4
E-2-2-2-2-2-2-2-2-2-2-2-2-2-2-2-2---------------7-7-7-7-7-7-7-7/5--|
  * *   * *   *   * * * * * * * * * *   * *   *   * * * * * *

* - palm mutted

on the fourth time, just before the chorus,it goes like this

G------9-----9------------------|
D------9-----9---9--9-9-9-9-9-7-|
A--7-7-7-7-7-7-7-9--9-9-9-9-9-7-|
E----------------7--7-7-7-7-7-5-|
   * *   * *   *

chorus

G---------9-------------    (i´m not 100--| sure about how many times the
D--4------9-X7--9----7--------------------|     the chords are played so its better to listen
A--4-X16--7-----9-X7-7--------------------| X2  to the song and find out for yourself)
E--2------------7----5--------------------|

then comes the intro riff again

E----------------------------------------------------------------------|
B----------------------------------------------------------------------|
G------4p2h4p2----------4p2h4p2----------4p2h4p2----------4p2h4p2------|
D--4-4--------4p2h4-4-4--------4p2h4-7-7--------4p2h4-8-8--------4p2h4-|X2
A--4-4--------------4-4--------------7-7--------------8-8--------------|
E--2-2--------------2-2--------------5-5--------------6-6--------------|

verse again...

chorus again (this time play it X4)

intro riff again...

bridge/solo

E----------------------------------------------------------|
B-----------11~--12-11----------------11~--12-11-12-11~----|
G---9-11-12------------12-9~--9-11-12----------------------|
D----------------------------------------------------------|
A----------------------------------------------------------|
E----------------------------------------------------------|

(let the notes ring)
E------7----7----7----7----------12--12--12-13~-------------|
B--10pb-10pb-10pb-10pb-10pb~---15--15--15-------------------|
G-----------------------------------------------------------|
D-----------------------------------------------------------|
A-----------------------------------------------------------|
E-----------------------------------------------------------|

chorus

outro

E-------------------------------------|
B--7--7----7--7----10--10---12--12----|
G--9b-9b~--9b-9b~--12b-12b~-14b-14b~--| X4
D-------------------------------------|
A-------------------------------------|
E-------------------------------------|

that was all :)

if you have questions or corrections,mail me: SorrisosIronicos@hotmail.com
comments
We did not receive enough feedback on this tab! Please rate:
print report bad tab
1 2 3 4 5
I want to post or [tab]
guest
You may want to rate the tab now too:
select rating
Please do not post tabs as comments. Select "correction" instead!