Oops, an error
Loading. Please wait.

O Ye Bebek intro chords

by Kalben
550 views 6 this week
no commentswrite comment
1 2 3 4 5
1 last vote to show rating
add to favorites
×
Save as Personal and add changes to this tab that will be seen only by you. Learn more ›
×
You can save this tab as Personal to edit and correct it or add notes. All changes will be seen only by you. Learn more »
launch autoscroll
font size
0
reset
transpose
0
reset
simplify chords
display chords
guitar tuner
edit
Autoscroll
slow
fast
+/-
esc
set tempo
stop
Author
Difficulty
Strumming
There is no strumming pattern for this song yet. and get +5 IQ
                             O Ye Bebek - Kalben



Tuning: Standart


Aadd9 : 0 0 2 2 0 0 

B7    : 0 2 1 2 0 0 


[Intro]

          Em                Em                Am                 Am
e|------x-0--x--0---------x-0--x--0--------x--0--x--0---------x--0--x--0-----------|
B|------x-0--x--0---------x-0--x--0--------x--1--x--1---------x--1--x--1-----------|
G|------x-0--x--0---------x-0--x--0--------x--2--x--2---------x--1--x--2-----------|
D|------x-2--x--2---------x-2--x--2-------x---2--x--2--------x---2--x--2-----------|
A|-----x--2--x--2--------x--2--x--2----0-x----0--x--0-----0-x----0--x--0-----------|
E|--0-x---0--x--0-----0-x---0--x--0------------------------------------------------|


             C           Aadd9       B7             Em                Em                   
e|--------x--0--x--0-----------------------------x--0--x--0--------x--0--x--0------|
B|--------x--1--x--1-----------------------------x--0--x--0--------x--0--x--0------|
G|--------x--0--x--0--------2---------2----------x--0--x--0--------x--0--x--0------|
D|-------x---2--x--2------2---2-----1---1--------x--2--x--2--------x--2--x--2------|
A|----3-x----3--x--3----0---------2-------------x---2--x--2-------x---2--x--2------|
E|-------------------------------------------0-x----0--x--0----0-x----0--x--0------|


[Verse]

Em
bana öyle sarma, böyle sar.
Am
sonra da yak, canımı yakmak yerine.
C                                Aadd9  B7        Em                                  
yapayalnız gecelerde yürüyor kızlar, tıkırdıyor istiklalde.

Em
pencerelerde eski erkekler,
Am
gözlerinde bedelli askerler. 
C
sabun kokar avuçları
        Aadd9 B7       Em
yeni alınmış kaşları...


[Pre-Chorus]

C                    Am
burnum akar, biri çeker.
                       Em
bu sıra böyle uzar gider.
C                         Aadd9
saldırır sesim, büyür ellerim.
              B7              Em
seni görmedim, seni görmedim...


[Chorus]

Em
aldatmadın, aldanmadım.
Em                   B7
umutsuzdu, inanmadım.
                            Am
kırkı çıktı, çanta topladım.

ıslak saçım, üşür başım.
C
kirli konuş benimle
   Aadd9
oh yeah bebek 
     B7              Em
yana yana bitmek gerek...

Em
aldatmadın, aldanmadım.
Em                   B7
umutsuzdu, inanmadım.
                            Am
kırkı çıktı, çanta topladım.

ıslak saçım, üşür başım.
C
kirli konuş benimle,
   Aadd9
oh yeah bebek
     B7              Em 
yana yana bitmek gerek...


[Pre-Chorus]

C                     Am
burnum akar, biri çeker.
                       Em
bu sıra böyle uzar gider.
C                         Aadd9
saldırır sesim, büyür ellerim.
             B7              Em
seni görmedim, seni görmedim...


[Chorus]

Em
aldatmadın, aldanmadım.
Em                   B7
umutsuzdu, inanmadım.
                             Am
kırkı çıktı, çanta topladım.

ıslak saçım, üşür başım.
C
kirli konuş benimle
   Aadd9
oh yeah bebek 
     B7                Em
yana yana bitmek gerek...
C
kirli konuş benimle
   Aadd9
oh yeah bebek 
     B7                Em
yana yana bitmek gerek...

            
            
Suggest correction
Creating personal tab
Creating personal tab
You can edit any tab online and save it as your Personal.

You can edit, replace or remove any tab part or add personal notes – all changes will be seen only by you.

Personal tabs can be accessed anytime from any device, even offline.
Learn more »
Give kudos to tab author, rate the tab!
1 2 3 4 5
comments
print report bad tab
guest
You may want to rate the tab now too:
select rating
Wanna post a correction for this tab? Suggest correction