Oops, an error
Loading. Please wait.

Mentiras chords

by Kalean
17 views 1 this week
no commentswrite comment
1 2 3 4 5
3 more votes to show rating
add to favorites
×
Save as Personal and add changes to this tab that will be seen only by you. Learn more ›
×
You can save this tab as Personal to edit and correct it or add notes. All changes will be seen only by you. Learn more »
launch autoscroll
font size
0
reset
transpose
0
reset
simplify chords
display chords
guitar tuner
edit
Autoscroll
slow
fast
+/-
esc
set tempo
stop
Strumming
There is no strumming pattern for this song yet. and get +5 IQ
intro:  D
 
LA PRIMER GUITARRA HACE ESTO

E--------------------------
B---------888-7777----------
G-----------------999-7777--
D--------------------------
A--------------------------
E--------------------------

LUEGO LAS DOS GUITARRAS KAEN JUNTAS EN G

D5                            E5     
HOY KE SE KE TODO ES MENTIRA SOLO HAY RINCONES
                             G5                 D5
DONDE NUNCA ES DE DIA LA MUERTE NACE EN MI VIDA
D5                               E5               
YO YA ESTOY LLENO DE MUERTOS PEQUEÑOS CADAVERES
                  G5                         
CUBREN MI CUERPO SOY COMO UN CEMENTERIO VISTO
            D5
DESDE EL CIELO  
D5                                 E5
DICEN KE EL SOL BRILLA PARA TODOS PERO AMI ME
                         G5
KEMAN SOLO LAS SOMBRAS LLENAS DE PALABRAS
      D5        D5
ENGAÑOSAS MIS MANOS MIS DIENTES MI FORMA DE SER
E5                                  G5
LAS COSAS KE ESCRIBO EN LA PARED DEMASIADA RABIA
             D5      G5                            D5
PARA ESTAR MUERTO DEMASIADA RABIA PARA ESTAR MUERTO


G5 D5 G5 D5 G5 D5....

LUEGO SIGUE LO MISMO DEL INTRO PERO LA SEGUNDA GUITARRA ESTA
EN ESTOS TONOS D5 E5 G5


LA SIGUIENTE PARTE ES IGUAL LOS MISMOS TONOS D5 E5 G5

LLEVA UN PEKEÑO SOLILLO MAS OMENOS ASI

E-----------------------------------------
B--------------------12-----8-7---8-7-----
G-----7/11-11/10-10------------7-----7-7-- SE REPITE 2 VECES
D-----------------------------------------
A-----------------------------------------
E-----------------------------------------

1er GUITARRA

E--------------------------------------
B----------8888-7777-------------------
G-------------------9999-7777----7-----
D--------------------------------5-----
A--------------------------------------
E--------------------------------------

2da GUITARRA

E---------------------------------
B-------------8-7-----8-7--------- VARIAS VECES
G-----------------7------7--------
D---------------------------------
A---------------------------------
E----------------------------------

SI TIENEN MAS TABS DE KALEAN POR FAVOR SUBANLAS
ESTE GRUPO SI ESTA KABRON

            
            
Suggest correction
Creating personal tab
Creating personal tab
You can edit any tab online and save it as your Personal.

You can edit, replace or remove any tab part or add personal notes – all changes will be seen only by you.

Personal tabs can be accessed anytime from any device, even offline.
Learn more »
Give kudos to tab author, rate the tab!
1 2 3 4 5
comments
print report bad tab
guest
Wanna post a correction for this tab? Suggest correction