Oops, an error
Loading. Please wait.

I Will Always Feel The Same Bass Tab

7 views 1 this week
no commentswrite comment
1 2 3 4 5
3 more votes to show rating
add to favorites
launch autoscroll
font size
0
reset
guitar tuner
Autoscroll
slow
fast
+/-
esc
set tempo
stop
Help us to improve Ultimate-Guitar.com Take our survey!
×
Author
Difficulty
novice
Tabbed by: 6METAL6BASSIST6
E-mail: petergriffinav@gmail.com

Tuning: EADG

G|----------------------------------------------------------------|
D|------------------------10------------------------------10--7---| x2
A|----------------------------10--8-------------------------------|
E|8---------------------------------------------------------------|

1:10

G|--------------------------------------------------------10------|
D|------------------------10----------------------------------10--|
A|----------------------------10--8-------------------------------|
E|8---------------------------------------------------------------|

G|----------------------------------------------------------------|
D|--------------------------------------------------------10------|
A|----------------10------------------------------------------10--|
E|8-------------------------------8-------------------------------|

G|--------------------------------------------------------------------------------|
D|------------------------10------------------------------------------------------|
A|8---------------------------12------------------10------------------------------|
E|--------------------------------10----------------------------------------------|

0:25

G|----------------------------------------------------------------|
D|----------------------------------------------------------------| x2
A|----------------------------------------------------------------|
E|8-----------------------8---\---3-----------------------3---/---|

0:34

G|--------------------------------------------------------10------|
D|------------------------10----------------------------------10--|
A|----------------------------10--8-------------------------------|
E|8---------------------------------------------------------------|

G|----------------------------------------------------------------|
D|--------------------------------------------------------10------|
A|----------------10----------------------------------------------|
E|8-------------------------------8-------------------------------|

G|--------------------------------------------------------------------------------|
D|------------------------10------------------------------------------------------|
A|8---------------------------12------------------10------------------------------|
E|--------------------------------10----------------------------------------------|

0:49

G|----------------------------------------------------------------|
D|----------------------------------------------------------------| x2
A|----------------------------------------------------------------|
E|8-----------------------8---\---3-----------------------3---/---|

0:58

G|----------------------------------------------------------------|
D|----------------------------------------------------------------| x2
A|----------------------------------------------------------------|
E|8-----------------------8---\---3-----------------------3---/---|

G|----------------------------------------------------------------|
D|----------------------------------------------------------------|
A|----------------8--------------------------------10-------------|
E|8-------------------------------8-------------------------------|

1:12

G|--------------------------------------------------------10------|
D|------------------------10----------------------------------10--|
A|----------------------------10--8-------------------------------|
E|8---------------------------------------------------------------|

G|----------------------------------------------------------------|
D|--------------------------------------------------------10------|
A|----------------10----------------------------------------------|
E|8-------------------------------8-------------------------------|

G|--------------------------------------------------------------------------------|
D|------------------------10------------------------------------------------------|
A|8---------------------------12------------------10----------------------10------|
E|--------------------------------10----------------------------------------------|

1:27

G|----------------------------------------------------------------|
D|----------------------------------------------------------------| x2
A|----------------------------------------------------------------|
E|8-----------------------8---\---3-----------------------3---/---|

G|----------------------------------------------------------------|
D|----------------------------------------------------------------|
A|----------------8--------------------------------8--------------|
E|8-------------------------------8-------------------------------|

G|--------------------------------|
D|--------------------------------|
A|--------------------------------|
E|8-------------------------------|
Suggest correction
Give kudos to tab author, rate the tab!
1 2 3 4 5
comments
print report bad tab
guest
You may want to rate the tab now too:
select rating
Wanna post a correction for this tab? Suggest correction