Oops, an error
Loading. Please wait.

Automobile Tab

version 1
version 1

Solo

  • Solo tab to Kaleo's 'Automobile' tabbed by ear.

Whole song

  • Written from watching a combination of live videos... Show more
172 views 21 this week
no commentswrite comment
1 2 3 4 5
3 more votes to show rating
add to favorites
launch autoscroll
font size
0
reset
how to read this tab
guitar tuner
Autoscroll
slow
fast
+/-
esc
set tempo
stop
Help us to improve Ultimate-Guitar.com Take our survey!
×
Author
Difficulty
About this tab version
Solo tab to Kaleo's 'Automobile' tabbed by ear. Was this info helpful? Yes No
One of the most underrated songs by one of the most underrated bands. As always, it's best to listen to the
song to pick up the exact timing but you'll get it after a few listens. Good luck! :)

just a matter of time...
           e|---------------|-----------------------------|-----------------------------|
           b|---------------|-------------------5---------|-------------------5---7-5---|
           g|-------6-4-----|---------------4/6---6-4-----|---------------4/6---6-----6-|
           D|-2/7-7-----7-4-|-7-4---7-4---7-----------7-4-|-7-4---7-4---7---------------|
           A|---------------|-----7-----7-----------------|-----7-----7-----------------|
           E|---------------|-----------------------------|-----------------------------|

                           e|-5-5-------5-5-----7-8-9-10-12----9--------|-12---------------------|
                           b|-----2h3h5-----2---------------12----10----|-12sb13-----------------|
                           g|-------------------------------------------|-----------10b11-9------|
                           D|-------------------------------------------|------------------------|
                           A|-------------------------------------------|------------------------|
                           E|-------------------------------------------|------------------------|
 

************************************

| h  Hammer-on
| /  Slide up
| b  Bend
| sb Slow bend

************************************
Suggest correction
Give kudos to tab author, rate the tab!
1 2 3 4 5
comments
print report bad tab
guest
You may want to rate the tab now too:
select rating
Wanna post a correction for this tab? Suggest correction