Oops, an error
Loading. Please wait.

Automobile Tab

version 1
version 1

Whole song

  • Written from watching a combination of live videos... Show more
127 views 51 this week
1 commentread comment
1 2 3 4 5
3 more votes to show rating
add to favorites
launch autoscroll
font size
0
reset
how to read this tab
guitar tuner
Autoscroll
slow
fast
+/-
esc
set tempo
stop
Help us to improve Ultimate-Guitar.com Take our survey!
×
Author
Difficulty
Capo
novice
2nd fret
About this tab version
Written from watching a combination of live videos, where they play it a little differently, but it is still compatible with the recorded version. Depending on performance he puts capo on fret 1 or 2. Was this info helpful? Yes No
[Verse]
                 Imagine myself in an automobile 
                    G                      D  
e|------3--|--------3----------------------2---------------------------------|
B|--3-5----|--------3----------------------3---------------------------------|
G|---------|--------0----------------------2---------------------------------|
D|---------|--------0----------------------0---------------------------------|
A|---------|--------2--------------------------------------------------------|
E|---------|--------3--------------------------------------------------------|

    A hundred miles an hour only me at the wheel
                                          G  
e|----------------------------------------3----------------------------------|
B|----------------------------------------3----------------------------------|
G|----------0-------0------0-----0--------0----------------------------------|
D|----------------------------------------0----------------------------------|
A|-------3------2-------0-----------------2----------------------------------|
E|----------------------------2----3-----------------------------------------|

    I want it to shine,  to be only mine 
       G                    D  
e|-----3--------------------2------------------------------------------------|
B|-----3--------------------3------------------------------------------------|
G|-----0--------------------2------------------------------------------------|
D|-----0--------------------0------------------------------------------------|
A|-----2---------------------------------------------------------------------|
E|-----3---------------------------------------------------------------------|

   The engine has to be just one of a kind
                                       G  
e|-------------------------------------3-------------------------------------|
B|-------------------------------------3-------------------------------------|
G|---------0-----0------0-----0--------0-------------------------------------|
D|-------------------------------------0-------------------------------------|
A|-------3-----2-----0-----------------2-------------------------------------|
E|-------------------------2----3--------------------------------------------|

      How many dollars do I need sir?              
      Em       C            G7  
e|----0--------0------------1------------------------------------------------|
B|----0--------1------------0h3--------0h1p0---0-----------------------------|
G|----0--------0------------0----------------2-------------------------------|
D|----2-------h2------------0------------------------------------------------|
A|----2--------3------------2------------------------------------------------|
E|----0--------3------------3------------------------------------------------|

      No I sure don't have a lot
      Em       C            G7  
e|----0--------0------------1-----------3p0----------------------------------|
B|----0--------1------------0h3--------------3p0-----------------------------|
G|----0--------0------------0------------------------------------------------|
D|----2-------h2------------0------------------------------------------------|
A|----2--------3------------2------------------------------------------------|
E|----0--------3------------3------------------------------------------------|

   There must be something we can work out
      Em       C            G7  
e|----0--------0------------1------------------------------------------------|
B|----0--------1------------0h3--------0h1p0---0-----------------------------|
G|----0--------0------------0----------------2-------------------------------|
D|----2-------h2------------0------------------------------------------------|
A|----2--------3------------2------------------------------------------------|
E|----0--------3------------3------------------------------------------------|

[Pre-chorus]
   Well I'll take it anyway         I guess I could make room for one, a bottle of rum
    A7              D                                    G                D
e|--h3--------------2------------------------------------3----------------2--|
B|--1---------------3------------------------------------3----------------3--|
G|--0---------------2--------0h2--2p0----0---------------0----------------2--|
D|--2---------------0------------------2---0-------------0----------------0--|
A|--0----------------------------------------------------2-------------------|
E|-------------------------------------------------------3-------------------|

  You and me together riding in to the sun
                                          G  
e|----------------------------------------3----------------------------------|
B|----------------------------------------3----------------------------------|
G|----------0-------0------0-----0--------0----------------------------------|
D|----------------------------------------0----------------------------------|
A|-------3------2-------0-----------------2----------------------------------|
E|----------------------------2----3-----------------------------------------|

  I'll live without care, with the wind in my hair
       G                             D                                          
e|-----3-----------------------------2---------------------------------------|
B|-----3-----------------------------3---------------------------------------|
G|-----0-----------------------------2---------------------------------------|
D|-----0-----------------------------0---------------------------------------|
A|-----2---------------------------------------------------------------------|
E|-----3---------------------------------------------------------------------|

  I'm driving through the desert yeah I'll go anywhere
                                            G  
e|------------------------------------------3--------------------------------|
B|------------------------------------------3--------------------------------|
G|----------0-------0------0-----0----------0--------------------------------|
D|------------------------------------------0--------------------------------|
A|-------3------2-------0-------------------2--------------------------------|
E|----------------------------2----3-----------------------------------------|

   Take me where the wheels take me, far away
     G                 C      G     B7     Em
e|---3-----------------0------3------------0---------------------------------|
B|---0-----------------1------h1-----------0---------------------------------|
G|---0-----------------0------0-----2------0---------------------------------|
D|---0-----------------2------0-----1------2---------------------------------|
A|---2-----------------3------2-----2------2---------------------------------|
E|---3-----------------3------3-----0------0---------------------------------|

   Wheels take me, I can't stay
     C      G     B7        Em
e|---0------3----------------0-----------------------------------------------|
B|---1------h1---------------0-----------------------------------------------|
G|---0------0-----2----------0-----------------------------------------------|
D|---2------0-----1----------2-----------------------------------------------|
A|---3------2-----2----------2-----------------------------------------------|
E|---3------3-----0----------0-----------------------------------------------|

   Wheels take me, anyplace today
     C      G     B7      A7    D
e|---0------3-------------h3----3------------3-------------------------------|
B|---1------h1-------------1----2-----3--3/5---------------------------------|
G|---0------0-----2--------0----3--------------------------------------------|
D|---2------0-----1--------2----0--------------------------------------------|
A|---3------2-----2--------0-------------------------------------------------|
E|---3------3-----0----------------------------------------------------------|

[Verse]
   Imagine myself in an automobile
       G                    D  
e|-----3--------------------2------------------------------------------------|
B|-----3--------------------3------------------------------------------------|
G|-----0--------------------2------------------------------------------------|
D|-----0--------------------0------------------------------------------------|
A|-----2---------------------------------------------------------------------|
E|-----3---------------------------------------------------------------------|

     A hundred miles an hour if you know how I feel
                                          G  
e|----------------------------------------3----------------------------------|
B|----------------------------------------3----------------------------------|
G|----------0-------0------0-----0--------0----------------------------------|
D|----------------------------------------0----------------------------------|
A|-------3------2-------0-----------------2----------------------------------|
E|----------------------------2----3-----------------------------------------|

   Alone with my mind, leave my worries behind
       G                    D  
e|-----3--------------------2------------------------------------------------|
B|-----3--------------------3------------------------------------------------|
G|-----0--------------------2------------------------------------------------|
D|-----0--------------------0------------------------------------------------|
A|-----2---------------------------------------------------------------------|
E|-----3---------------------------------------------------------------------|

   Might even reach the border it's just a matter of time
                                          G  
e|----------------------------------------3----------------------------------|
B|----------------------------------------3----------------------------------|
G|----------0-------0------0-----0--------0----------------------------------|
D|----------------------------------------0----------------------------------|
A|-------3------2-------0-----------------2----------------------------------|
E|----------------------------2----3-----------------------------------------|

[Solo]
     Em     C     G      Em     C     G      Em     C     G
e|----0-----0-----3-------0-----0-----3-------0-----0-----3------------------|
B|----0-----1-----0-------0-----1-----0-------0-----1-----0------------------|
G|----0-----0-----0-------0-----0-----0-------0-----0-----0------------------|
D|----2----h2-----0-------2----h2-----0-------2----h2-----0------------------|
A|----2-----3-----2-------2-----3-----2-------2-----3-----2------------------|
E|----0-----3-----3-------------0-----3-------------0-----3------------------|

[Chorus]
 I said take me where the wheels take me, far away
     G                     C      G     B7     Em
e|---3---------------------0------3------------0-----------------------------|
B|---0---------------------1------h1-----------0-----------------------------|
G|---0---------------------0------0-----2------0-----------------------------|
D|---0---------------------2------0-----1------2-----------------------------|
A|---2---------------------3------2-----2------2-----------------------------|
E|---3---------------------3------3-----0------0-----------------------------|

   Wheels take me, I can't stay
     C      G     B7        Em
e|---0------3----------------0-----------------------------------------------|
B|---1------h1---------------0-----------------------------------------------|
G|---0------0-----2----------0-----------------------------------------------|
D|---2------0-----1----------2-----------------------------------------------|
A|---3------2-----2----------2-----------------------------------------------|
E|---3------3-----0----------0-----------------------------------------------|

   Wheels take me, anyplace today
     C      G     B7      A7    D
e|---0------3-------------h3----3--------------------------------------------|
B|---1------h1-------------1----2--------------------------------------------|
G|---0------0-----2--------0----3--------------------------------------------|
D|---2------0-----1--------2----0--------------------------------------------|
A|---3------2-----2--------0-------------------------------------------------|
E|---3------3-----0----------------------------------------------------------|

[Bridge]
Oh I'm going to San Diego,  here I come
      D       C      G     B7        Em
e|----3-------0------3----------------0--------------------------------------|
B|----2-------1------h1---------------0--------------------------------------|
G|----3-------0------0-----2----------0--------------------------------------|
D|----0-------2------0-----1----------2--------------------------------------|
A|------------3------2-----2----------2--------------------------------------|
E|------------3------3-----0----------0--------------------------------------|

    San Francisco, won't be long
     C      G     B7        Em
e|---0------3----------------0-----------------------------------------------|
B|---1------h1---------------0-----------------------------------------------|
G|---0------0-----2----------0-----------------------------------------------|
D|---2------0-----1----------2-----------------------------------------------|
A|---3------2-----2----------2-----------------------------------------------|
E|---3------3-----0----------0-----------------------------------------------|

Sacramento, oh yeah, in the sun , I just might go 
     C      G     B7        Em     G          D
e|---0------3----------------0-----3----------2------------------------------|
B|---1------h1---------------0-----0----------3------------------------------|
G|---0------0-----2----------0-----0----------2------------------------------|
D|---2------0-----1----------2-----0----------0------------------------------|
A|---3------2-----2----------2-----2-----------------------------------------|
E|---3------3-----0----------0-----3-----------------------------------------|

  Oh I said I'm going to San Diego, San Jose,
    D                      Gm   Gmaj   D  
e|--2----------------------3------3----2-------------------------------------|
B|--3----------------------3------3----3-------------------------------------|
G|--2----------------------3------4----2-------------------------------------|
D|--0----------------------2------5----0-------------------------------------|
A|-------------------------2------5------------------------------------------|
E|-------------------------3------3------------------------------------------|

 San Francisco, to hang by the bay
     C      G     B7        Em
e|---0------3----------------0-----------------------------------------------|
B|---1------h1---------------0-----------------------------------------------|
G|---0------0-----2----------0-----------------------------------------------|
D|---2------0-----1----------2-----------------------------------------------|
A|---3------2-----2----------2-----------------------------------------------|
E|---3------3-----0----------0-----------------------------------------------|

Sacramento oh yeah by the way
     C      G     B7        Em
e|---0------3----------------0-----------------------------------------------|
B|---1------h1---------------0-----------------------------------------------|
G|---0------0-----2----------0-----------------------------------------------|
D|---2------0-----1----------2-----------------------------------------------|
A|---3------2-----2----------2-----------------------------------------------|
E|---3------3-----0----------0-----------------------------------------------|

I just might go    all the way to Mexico
              A7     D              G
e|------------h3-----2--------------3----------------------------------------|
B|------------1------3--------------3----------------------------------------|
G|------------0------2--------------0----------------------------------------|
D|------------2------0--------------0----------------------------------------|
A|------------0---------------------2----------------------------------------|
E|----------------------------------3----------------------------------------|

 Oh, just might go all the way down to Mexico 
      D                                    G    D
e|----2------------------------------------3----2-------------------3--------|
B|----3------------------------------------3----3-------------------3--------|
G|----2------0-------0------0-----0--------0----2----0---0---0---0--0--------|
D|----0------------------------------------0----0-------------------0--------|
A|--------3------2-------0-----------------2-------3---2---0---2----2--------|
E|-----------------------------2----3-------------------------------3--------|

[Whistling]
     C     G     B    Em     C     G     B    Em    
e|---0-----3-----2-----0-----0-----3-----2-----0-----------------------------|
B|---1-----3-----4-----0-----1-----3-----4-----0-----------------------------|
G|---0-----4-----4-----0-----0-----4-----4-----0-----------------------------|
D|---2-----5-----4-----2-----2-----5-----4-----2-----------------------------|
A|---3-----5-----2-----2-----3-----5-----2-----2-----------------------------|
E|---3-----3-----2-----0-----3-----3-----2-----0-----------------------------|

     C     G    B7    Em     C     D     C    G    B7   Em   A7    D
e|---0-----3-----0-----0-----0-----2-----0----3-----0----0----3----2---------|
B|---1-----0-----0-----0-----1-----3-----1----0-----0----0----0----3---------|
G|---0-----0-----2-----0-----0-----2-----0----0-----2----0----1----2---------|
D|---2-----0-----1-----2-----2-----0-----2----0-----1----2----0----0---------|
A|---3-----2-----2-----2-----3-----------3----2-----2----2----2--------------|
E|---3-----3-----0-----0-----3-----------3----3-----0----0----0--------------|

     C     G    B7    Em    A7    D
e|---0-----3-----0-----0-----3----2----------------3-------------------------|
B|---1-----0-----0-----0-----0----3-----[opt]--3/5---------------------------|
G|---0-----0-----2-----0-----1----2------------------------------------------|
D|---2-----0-----1-----2-----0----0------------------------------------------|
A|---3-----2-----2-----2-----2----0------------------------------------------|
E|---3-----3-----0-----0-----0----0------------------------------------------|

************************************

[opt] Optional
| x   Dead note
| h   Hammer-on
| p   Pull-off
| b   Bend
| /   Slide up
| \   Slide down
| ~   Vibrato

************************************
Suggest correction
Give kudos to tab author, rate the tab!
1 2 3 4 5
comments
print report bad tab
1 comment total.
0 reply
samoateswl 10 3 days ago

I think it was just a typo, but the last D chord before the second verse, you switched the fingering, but you still have it labeled as a D.

guest
You may want to rate the tab now too:
select rating
Wanna post a correction for this tab? Suggest correction