Oops, an error
Loading. Please wait.

Broken Bones chords

version 3
version 3

Whole song

by Kaleo
10,669 views 612 this week
4 commentsread comments
1 2 3 4 5
x 14
add to favorites
×
Save as Personal and add changes to this tab that will be seen only by you. Learn more ›
×
You can save this tab as Personal to edit and correct it or add notes. All changes will be seen only by you. Learn more »
launch autoscroll
font size
0
reset
transpose
0
reset
simplify chords
display chords
guitar tuner
edit
Autoscroll
slow
fast
+/-
esc
set tempo
stop
Strumming
There is no strumming pattern for this song yet. and get +5 IQ
Capo 3rd fret

[Intro]
N.C.
The Devil's gonna make me a free man
N.C.
The Devil's gonna set me free
N.C.
The Devil's gonna make me a free man
N.C.
The Devil's gonna set me free

[Solo]
       Em
e|------0-------------------------------------------------------------------------------------|
B|------0-------------------------------------------------------------------------------------|
G|------0--------------------0---------0/2---0--2--4--2--0-----2--0--2--4--2------------------|
D|------2------------0--2------2--2----------------------------------------------0--2---2--2--|
A|------2----------2-----------------------------------------------------------2--------2--2--|
E|------0-------------------------------------------------------------------------------------|x2

[Verse]
              Em             Am
I've been down, deep Texas. Mississippi state.
  B                        Em
Hoping things might go my way.
          Em            Am
For every hard earned dollar I make
  B                                Em
there stands a white man just to take it away.
                Em            Am
Some might say I talk loud, see if I care.
   B                      Em
Unlike them, don't walk away from my fear
                    Em              Am
I've busted bones, broken stones, looked the devil in the eye
   B                                 Em
I hope he's going to break these chains.

[Chorus]
       C               B           Em
The Devil's going to make me a free man
        C            B       Em
the Devil's going to set me free
        C              B          Em
The Devil's going to make me a free man
        C            B        Em
the Devil's going to set me free

[Solo]
e|-------------------------------------------------------------------------------------------|
B|-------------------------------------------------------------------------------------------|
G|--------------------------0---------0/2---0--2--4--2--0-----2--0--2--4--2------------------|
D|------------------0--2------2--2----------------------------------------------0--2---2--2--|
A|----------------2-----------------------------------------------------------2--------2--2--|
E|-------------------------------------------------------------------------------------------|x2

         Em             Am
Another hard day, no water no rest.
    B                    Em
I saw my chance so I got him at last.
            Em              Am
I took his six shooter, put two in his chest
      B                 Em         C          B         Em
He'll never say a word no more, he'll never say a word no more.

e|------3--0---------0------------------------|
B|----------------3-----3---------------------|
G|--------------------------2--0--------------|
D|--------------------------------2-----------|
A|--------------------------------------------|
E|--------------------------------------------|

  C          B          Em
The devil got him good for sure.
              Em             Am
Ain't got no place to call a home,
       B7              Em
only chains and broken bones.
              Em             Am
Ain't got no place to call a home
       B7                      Em
so come on lord won't you take me now
              Em              Am
Ain't got no place to call a home,
       B7               Em
only chains and broken bones.
              Em             Am
Ain't got no place to call a home
        B7                     Em
so come on lord what you waiting for.

[Solo]
e|---------------------------------------------------------0-3/0-0---0/7-----|
B|-------------------------------------------------0/3--0-3------------------|
G|-----3b4-4-4-4-4-4-3---2-0--------0--2--2/4\2------------------------------|
D|----------------------------2----------------------------------------------|
A|---------------------------------------------------------------------------|
E|---------------------------------------------------------------------------|

e|---7--7-5-3-5---3-0-3-3-0--0-----------------------------------------------|
B|------------------------------3--0-----------------------------------------|
G|-----------------------------------0-1h2-0-----3-2-0-2-0---------0/9-------|
D|--------------------------------------------2------------2-0-2-2-----------|
A|---------------------------------------------------------------------------|
E|---------------------------------------------------------------------------|

e|-----------6-3-5-3---5/6/0-0--3---6-5-3-5-3-0---0-0-3---6-3-5-3---5/6/0----|
B|---0/3-5--------------------------------------3----------------------------|
G|---------------------------------------------------------------------------|
D|---------------------------------------------------------------------------|
A|---------------------------------------------------------------------------|
E|---------------------------------------------------------------------------|

e|---0--3---------------------------------|
B|----------3h5p3--0-3-0------------------|
G|-----------------------2-0-2-0----------|
D|-------------------------------2-2------|
A|----------------------------------------|
E|----------------------------------------|

       C          B           Em
The Devil's going to make me a free man
        C          B         Em
the Devil's going to set me free
        C          B          Em
The Devils going to make me a free man
         C         B         Em
the Devil's going to set me free

************************************

| h  Hammer-on
| p  Pull-off
| b  Bend
| /  Slide up
| \  Slide down

************************************

            
            
Suggest correction
Creating personal tab
Creating personal tab
You can edit any tab online and save it as your Personal.

You can edit, replace or remove any tab part or add personal notes – all changes will be seen only by you.

Personal tabs can be accessed anytime from any device, even offline.
Learn more »
comments
print report bad tab
4 comments total. Showing first comments.
0 reply
HawkIP 10 May 14, 2017 01:28 PM

Great job!

0 reply
tae.caleb 10 May 26, 2017 09:51 AM

How can you slide up from 0 to 2? Can someone explain to me?

0 reply
SeteDiSangue 31 Sep 12, 2017 07:50 PM

Crushed it thanks.

guest
You may want to rate the tab now too:
select rating
Wanna post a correction for this tab? Suggest correction