Oops, an error
Loading. Please wait.

Hot Blood intro tab

version 2
version 2

Intro

Whole song

by Kaleo
12,361 views 189 this week
no commentswrite comment
1 2 3 4 5
x 15
add to favorites
×
Save as Personal and add changes to this tab that will be seen only by you. Learn more ›
×
You can save this tab as Personal to edit and correct it or add notes. All changes will be seen only by you. Learn more »
launch autoscroll
font size
0
reset
how to read this tab
guitar tuner
edit
Autoscroll
slow
fast
+/-
esc
set tempo
stop
Author
Difficulty
[Intro]

e|---------------------------------------------------------------------------|
B|----------------------------------3-3--------------------------------------|
G|---2-2-----2-0--------------------2-2-----2-0-2-0--2/5\2-------------------|
D|---2-2---------2-0----------------0-0--------------------------------------|
A|---0-0-------------3--0-0--------------------------------------------------|
E|---------------------------------------------------------------------------|

e|--------------------------------x-x------x-x-------------------------------|
B|---2-2-----2-0------------------x-x------x-x-------------------------------|
G|---2-2---------2-0--------------x-x------x-x-------------------------------|
D|---0-0-------------3--0-0-------x-x------x-x-------------------------------|
A|--------------------------------x-x------x-x-------------------------------|
E|--------------------------------x-x------x-x-------------------------------|


[Intro]                       |[Verse]
                              |
e|-1---1-1----3---3-3-3-------|-----0-0------3-3-3-3-3-3-3----------------------|
B|-1---1-1----3---3-3-3-------|-----1-1------3-3-3-3-3-3-3----------------------|
G|-2---2-2----4---4-4-4-------|-----2-2------0-0-0-0-0-0-0----------------------|
D|-3---3-3----5---5-5-5-------|-----2-2------0-0-0-0-0-0-0----------------------|
A|-3---3-3----5---5-5-5-------|-----0-0------2-2-2-2-2-2-2----------------------|
E|-1---1-1----3---3-3-3-------|--------------3-3-3-3-3-3-3----------------------|

e|---2-2----------1---1-1----3---3-3-3-----------------------------------------|  (VERSE REPEATS 4X)
B|---3-3----------1---1-1----3---3-3-3-----------------------------------------|  First 2 times with pauses
G|---2-2----------2---2-2----4---4-4-4-----------------------------------------|  between the different chords
D|---0-0----------3---3-3----5---5-5-5-----------------------------------------|  Last 2 times he plays it
A|----------------3---3-3----5---5-5-5-----------------------------------------|  fluently. Try to find the
E|----------------1---1-1----3---3-3-3-----------------------------------------|  balance. REMEMBER: This is
                                                                                  only rhythm guitar

[Chorus]

e|----5-----------------5-----------------5-------------------------------------|
B|----8b----------------8b------------------8-5---------------------------------|
G|----------------------------------------------7-5-----------------------------|
D|--------------------------------------------------7-7-------------------------|
A|------------------------------------------------------------------------------|
E|------------------------------------------------------------------------------|

e|----5------------------5------------------5---5---8b--5--------------------|
B|----8b-----------------8b-------------------8---8--------------------------|
G|---------------------------------------------------------------------------|
D|---------------------------------------------------------------------------|
A|---------------------------------------------------------------------------|
E|---------------------------------------------------------------------------|

e|----5-----------------5-----------------5-------------------------------------|
B|----8b----------------8b------------------8-5---------------------------------|
G|----------------------------------------------7-5-----------------------------|
D|--------------------------------------------------7-7-------------------------|
A|------------------------------------------------------------------------------|
E|------------------------------------------------------------------------------|

THIS IS WHAT I KNOW. THERE MIGHT BE SOME MISTAKES, BECAUSE I DID IT WITH MY HEARING. IT ONLY CONTAINS THE
INTRO, FIRST VERSE AND FIRST CHORUS. I'M WORKING ON THE REST AND ESPECIALLY THE SOLO. THANK YOU




************************************

| x  Dead note
| b  Bend
| /  Slide up
| \  Slide down

************************************

            
            
Suggest correction
Creating personal tab
Creating personal tab
You can edit any tab online and save it as your Personal.

You can edit, replace or remove any tab part or add personal notes – all changes will be seen only by you.

Personal tabs can be accessed anytime from any device, even offline.
Learn more »
comments
print report bad tab
guest
You may want to rate the tab now too:
select rating
Wanna post a correction for this tab? Suggest correction