Oops, an error
Loading. Please wait.

I Cant Go On Without You Tab

1,147 views 99 this week
no commentswrite comment
1 2 3 4 5
x 7
add to favorites
launch autoscroll
font size
0
reset
how to read this tab
guitar tuner
Autoscroll
slow
fast
+/-
esc
set tempo
stop
Help us to improve Ultimate-Guitar.com Take our survey!
×
Author
Difficulty
Tuning
Capo
novice
E A D G B E
4th fret
[Intro]
e|--3p0-----0-----3p0-----0-----3p0-----0-----0-----2v-----------------------|
B|-------0-----0-------0-----0-------0-----0-----0---------------------------|
G|---------------------------------------------------------------------------|
D|--2-------2-----2-------2-----2-------2-----1-----1------------------------|
A|---------------------------------------------------------------------------|
E|---------------------------------------------------------------------------|

e|--3p0-----0-----3p0-----0-----3p0-----0-----0-----0h2-----------------------|
B|-------0-----0-------0-----0-------0-----0-----0---------------------------|
G|---------------------------------------------------------------------------|
D|--2-------2-----2-------2-----2-------2-----1-----1------------------------|
A|---------------------------------------------------------------------------|
E|---------------------------------------------------------------------------|
x2 whistling
e|------0-------0-------0-------0-------0-------3-------3-------2------------|
B|------0-------0-------0-------0-------1-------1-------0-------0------------|
G|----0---0---0---0---0---0---2---0---0---0---0---0---0---0---2--------------|
D|--2-------1-------0-----------------------2---------------1----------------|
A|--------------------------4-------3----------------------------------------|
E|--------------------------------------------------3------------------------|

"They thought that they were made for each other..." (the ending of this riff varies on the high e string.)
x4
e|------0-------2-------3-------0--------------------------------------------|
B|------1-------0-------1-------0--------------------------------------------|
G|----0---0---2---0---0---0---0---0------------------------------------------|
D|----------1-------2-------0------------------------------------------------|
A|--3------------------------------------------------------------------------|
E|---------------------------------------------------------------------------|

e|------0-------2-------3p0-----0--------------------------------------------|
B|------1-------0-------1-------0--------------------------------------------|
G|----0---0---2---0---0-------0---0------------------------------------------|
D|----------1-------2-------0------------------------------------------------|
A|--3------------------------------------------------------------------------|
E|---------------------------------------------------------------------------|

e|------0-------2-------3-------3p0------------------------------------------|
B|------1-------0-------1-------1---0----------------------------------------|
G|----0---0---2---0---0---0---0----------------------------------------------|
D|----------1-------2-------0------------------------------------------------|
A|--3------------------------------------------------------------------------|
E|---------------------------------------------------------------------------|

e|------0-------2-------0----------------------------------------------------|
B|------1-------0-------0----------------------------------------------------|
G|----0---0---2---0---0---0--------------------------------------------------|
D|----------1-------2--------------------------------------------------------|
A|--3------------------------------------------------------------------------|
E|---------------------------------------------------------------------------|

"We don't want that..."

[Strumming part]
This part is strummed, not quite sure what the chords are but they're basically the fingerings
from earlier. (C 032010 B7 x21202 Em7 022001 G 320003) I'll let you correct 

"I can't go on without you"
e|------0-------2-------3-------3p0------------------------------------------|
B|------1-------1-------1-------1--------------------------------------------|
G|----0---0---0---0---0---0---0------0---------------------------------------|
D|----------1-------2-------0------------------------------------------------|
A|--3------------------------------------------------------------------------|
E|---------------------------------------------------------------------------|

e|------0-------2-------3p0-----0--------------------------------------------|
B|------1-------1-------1-------1--------------------------------------------|
G|----0---0---0---0---0---0---0---0------------------------------------------|
D|----------1-------2-------0------------------------------------------------|
A|--3------------------------------------------------------------------------|
E|---------------------------------------------------------------------------|

e|------0-------2-------3-------3p0------------------------------------------|
B|------1-------1-------1-------1--------------------------------------------|
G|----0---0---0---0---0---0---0-----0----------------------------------------|
D|----------1-------2-------0------------------------------------------------|
A|--3------------------------------------------------------------------------|
E|---------------------------------------------------------------------------|

e|------0-------2----------------3--3--0-------------------------------------|
B|------1-------1----------------1--1--1-------------------------------------|
G|----0---0---0---0----------------------------------------------------------|
D|----------1-------2--------------------------------------------------------|
A|--3------------------------------------------------------------------------|
E|---------------------------------------------------------------------------|

[Electric solo]
(more strumming)

"where was I..."
e|------0-------2-------3---------3p0----------------------------------------|
B|------1-------1-------1-------1-----1--------------------------------------|
G|----0---0---0---0---0---0---0----------------------------------------------|
D|----------1-------2-------0------------------------------------------------|
A|--3------------------------------------------------------------------------|
E|---------------------------------------------------------------------------|

e|------0-------3-------2---------2------------------------------------------|
B|------1-------1-------1-------1---1----------------------------------------|
G|----0---0---0---0---0---0---0----------------------------------------------|
D|------------------1-------1------------------------------------------------|
A|--3------------------------------------------------------------------------|
E|----------3----------------------------------------------------------------|

************************************

| p   Pull-off

************************************
Suggest correction
comments
print report bad tab
guest
You may want to rate the tab now too:
select rating
Wanna post a correction for this tab? Suggest correction