Oops, an error
Loading. Please wait.

I Cant Go On Without You solo tab

version 1
version 1

Solo

by Kaleo
2,284 views 78 this week
no commentswrite comment
1 2 3 4 5
x 6
add to favorites
×
Save as Personal and add changes to this tab that will be seen only by you. Learn more ›
×
You can save this tab as Personal to edit and correct it or add notes. All changes will be seen only by you. Learn more »
launch autoscroll
font size
0
reset
how to read this tab
guitar tuner
edit
Autoscroll
slow
fast
+/-
esc
set tempo
stop
KALEO  -  CAN'T GO ON WITHOUT YOU  :  SOLO PART 
  
This tab describes the "first solo" (some can argue there is only one, though), 
that happens at around 2:45 in the studio version of the song.

The actual solo is performed with a bottleneck, with a slide guitar style.
This is an adaptation for standard play of the original bottleneck solo, therefore
there might be some slight inconsistencies when compared to the actual solo.
I tried to make it as close to the latter as possible, though. 

"I can't go on, won't go on, livin on, without you..."
-------------------

  [Attack]  [Solo]
                           (^)
e|-3----0----------------------------------------------------------------------------------------------------|
B|---0---------------------------------------------------------------------------------(8)--(8)--(8)--(7)~~~-|
G|-----------------------------------------9r-----------8r---8-8/9--------------------7/9--7/9--7/9--6/8~~~--|
D|-----------------2----4b-4b~~~--2---2//9r---(9)--1//9r-------------7\5-2-----------------------------------|
A|-------(2)-PM2h5----2-------------2--------------------------------------2-2/7-7r\-------------------------|
E|--------0--------------------------------------------------------------------------------------------------|

e|---------12r------12-12/14-14r-------14-14/15-15r--(15)-15-15/17-17r---------------------------------------|
B|--4//12r------(12)--------------(12)------------------------------------8fbr--8-10p8-10-10fbr~~~-----------|
G|-----------------------------------------------------------------------------------------------------------|
D|-----------------------------------------------------------------------------------------------------------|
A|-----------------------------------------------------------------------------------------------------------|
E|-----------------------------------------------------------------------------------------------------------|
                                                                                           slow bend


************************************

| h   Hammer-on
| p   Pull-off
| (n) Optional
| ^   Pinch harmonic
| r   Let ring / hold note
| b   Bend = one half-tone (one fret bend)
| fb  Full bend = one  full tone (two frets bend)
| fbr Full bend and hold the bend
| /   Slide up (Short)
| //  Slide up (Long)
| \   Slide down (Short)
| \\  Slide down (Long)
| ~   Vibrato
| PM  Palm mute

************************************

            
            
Suggest correction
Creating personal tab
Creating personal tab
You can edit any tab online and save it as your Personal.

You can edit, replace or remove any tab part or add personal notes – all changes will be seen only by you.

Personal tabs can be accessed anytime from any device, even offline.
Learn more »
comments
print report bad tab
guest
You may want to rate the tab now too:
select rating
Wanna post a correction for this tab? Suggest correction