Oops, an error
Loading. Please wait.
We have Chord Pro version of No Good.
It's the closest thing you can get to the original song and it has interactive parts. Check out the tab »
×

No Good intro tab

version 2
version 2

Intro

Whole song

Interactive

by Kaleo
9,829 views 102 this week
2 commentsread comments
1 2 3 4 5
x 13
add to favorites
×
Save as Personal and add changes to this tab that will be seen only by you. Learn more ›
×
You can save this tab as Personal to edit and correct it or add notes. All changes will be seen only by you. Learn more »
launch autoscroll
font size
0
reset
how to read this tab
guitar tuner
edit
Autoscroll
slow
fast
+/-
esc
set tempo
stop
Author
Difficulty
Listen to a live version on 0.5 speed for timing and fingering.
Live version: https://www.youtube.com/watch?v=iqpW0IWPYdU


[Intro]

e|----------------------------------------------------------------|
B|----------------------------------------------------------------|
G|----------------------------------------------------------------|
D|2----2------2----2------2------2-2-2----2------2-2-2---2----2---|
A|2----2------2----2------2------2-2-2----2------2-2-2---2----2---|
E|0-3b-0------0-3b-0------0-3b---0-0-0----0-3b---0-0-0---0-3b-0---|


e|--3b3.5-0--------------------3b3.5-0---5b6--3-----------3b3.5-0---------------------------|
B|-----------------------------------------------5-3-5--------------------------------------|
G|----------2-2h3p2p0h2p0------------------------------------------2-2h3p2p0h2p0----2-2-0---|
D|------------------------h2-----------------------------------------------------h2-------2-| x2
A|------------------------------------------------------------------------------------------|
E|----------------------------0-------------------------0-----------------------------------|



************************************

| h  Hammer-on
| p  Pull-off
| b  Bend

************************************

            
            
Suggest correction
Creating personal tab
Creating personal tab
You can edit any tab online and save it as your Personal.

You can edit, replace or remove any tab part or add personal notes – all changes will be seen only by you.

Personal tabs can be accessed anytime from any device, even offline.
Learn more »
comments
print report bad tab
2 comments total.
0 reply
chipperdrew 10 Jun 29, 2016 06:52 PM, edited at 10:53 pm

According to the video you posted, it looks more like he's playing...e|--3b3.5-0--------------------|B|--------0--------------------|G|----------2-2h3p2p0-2p0------|D|------------------------2----| A|-----------------------------|E|-----------------------------|...as opposed to...e|--3b3.5-0--------------------|B|-----------------------------|G|----------2-2h3p2p0h2p0------|D|------------------------h2---| A|-----------------------------|E|-----------------------------|And the 5-3-5 part on the B string sounds more like 5p3-5 to me. But these are minor things, overall I really appreciate the tab man, definitely more accurate than the other tab posted here.

guest
You may want to rate the tab now too:
select rating
Wanna post a correction for this tab? Suggest correction