Oops, an error
Loading. Please wait.

No Good Tab

version 3
version 3

Intro

  • It sounds very close to the original song if it's not identical.

Whole song

Interactive

766 views 66 this week
no commentswrite comment
1 2 3 4 5
x 3
add to favorites
launch autoscroll
font size
0
reset
how to read this tab
guitar tuner
Autoscroll
slow
fast
+/-
esc
set tempo
stop
Help us to improve Ultimate-Guitar.com Take our survey!
×
Author
Difficulty
intermediate
About this tab version
It sounds very close to the original song if it's not identical. Was this info helpful? Yes No
[Intro]

e|-----------------|----3b4br0-----------------------------------------------|
B|-----------------|---------------------------------------------------------|
G|-----------------|---------------2--2-2h3p2---2p0--------------------------|
D|---2-------2-----|---------------------------------2p0---------------------|
A|---2-------2-----|---------------------------------------------------------|
E|---0--3b4--0-----|---------------------------------------------------------|
 
Play this ^ couple of 
times


e|---3b4br0-----5b6----3----0---0------|----3b4br0--------------------------------------------------------|
B|----------------------------3--------|------------------------------------------------------------------|
G|-------------------------------------|---------------2--2-2h3p2---2p0-----------0h2--2--0---------------|
D|-------------------------------------|---------------------------------2p0------------------2--0h2--2---|
A|-------------------------------------|------------------------------------------------------------------|
E|-------------------------------------|------------------------------------------------------------------|

************************************


| h   Hammer-on
| p   Pull-off
| b   Bend
| br  Bend release

************************************
Suggest correction
Give kudos to tab author, rate the tab!
1 2 3 4 5
comments
print report bad tab
guest
You may want to rate the tab now too:
select rating
Wanna post a correction for this tab? Suggest correction