Oops, an error
Loading. Please wait.

No Good Tab

version 1
version 1

Whole song

Interactive

6,805 views 642 this week
2 commentsread comments
1 2 3 4 5
x 10
add to favorites
launch autoscroll
font size
0
reset
how to read this tab
guitar tuner
Autoscroll
slow
fast
+/-
esc
set tempo
stop
Help us to improve Ultimate-Guitar.com Take our survey!
×
Author
Difficulty
intermediate
Kaleo - No Good
By Michalis Lalopoulos
Ok lads this is my first tab! I got a video cover for this one on youtube and got some
requests for a tab, so
there you have one! It's not 100% accurate but I put a lotta effort on it! Here is the
link to the cover too!
https://www.youtube.com/watch?v=TGPKIjhT7EE Enjoy!


[Intro]

(0:00-0:16)
e|-----------------------0-0-0-------0-0-0--------|
B|-----------------------0-0-0-------0-0-0--------|
G|-----------------------x-x-x-------x-x-x--------|
D| 2---2----2---2----2---2-2-2---2---2-2-2--2-----|
A| 2---2----2---2----2---2-2-2---2---2-2-2--2-----|
E| 0-3-0----0-3-0----0-3-0-0-0---0-3-0-0-0--0-3-0-|


[Main Riff] 

(0:16-0:34)You play it twice:
e|-3b-0--------------------------3b-0-5b-3--------------3b-0------------------------------------------|
B|-------2-2h4p2p0-2p0---------------------5-3-5-------------2-2h4p2p0-2p0-----0h2-2-0----------------|
G|---------------------2p0-------------------------------------------------2p0---------2-0h2-0h2-0----|
D|----------------------------------------------------------------------------------------------------|
A|----------------------------------------------------------------------------------------------------|
E|-------------------------0----------------------0------------------------------------------------0--|


[Verse]

 (0:34-0:56)
e|------------0-------0-----------------0-------0------------------------|
B|------------0-------0-----------------0-------0-----------7----------5-|
G|--------------------------------------------------------8----------6---|
D|-2----9-7-2---9-7-2---------2----9-7-2---9-7-2--------9----------7-----|
A|-2----9-7-2---9-7-2---------2----9-7-2---9-7-2-------------------------|
E|-0----7-5-0---7-5-0---------0----7-5-0---7-5-0------7---------5--------|


Then you play again the Main Riff (once) and then the Verse again (0:56-1:23), Also on
minute 1:17 you can
bend the G string on the 2nd fret to get a cool sound ;)


[Bridge]

 (1:23-1:41)
e|-----------------------------------------------------------------------------------------------------------|
B|-----------------------------------------------------------------------------------------------------------|
G|-----------------------------------------------------------------------------------------------------------|
D|-2---5---7---10-10-10-9------------5---------5----------5---------5--7-7p5--7-5-7p5-7p5---7/9-9-7-5--------|
A|-2---5---7---10-10-10-9-----7-7p5h7---5h7p5h7----7-7p5h7---5h7p5h7--------7------------7------------7-7-5--|
E|-0---3---5---8--8--8--7------------------------------------------------------------------------------------|


[Solo]

 (1:41-1:59)
e|15b-12----------------------15b-12--17b-15-----------15b-12------------------------------------------------
B|------------------------------------------17-15-17---------------------------------------------------------
G|-------14-16p14p12-14p12-----------------------------------14-16p14p12-14p12---12h14-14-12-----------------
D|------------------------14--------------------------------------------------14------------14-12h14p12h14-12
A|-----------------------------------------------------------------------------------------------------------
E|-----------------------------------------------------------------------------------------------------------

e|15b-12----------------------15b-12---5b-5b-5b-5b-5b-|
B|----------------------------------------------------|
G|------14-16p14p12-14p12-----------------------------|
D|-----------------------14---------------------------|
A|----------------------------------------------------|
E|----------------------------------------------------|

e|15b-12--------------------------------------------------|
B|--------------------------------------------------------|
G|------14-16p14p12-14p12---12h14-14-12-------------------|
D|-----------------------14------------14-12h14p12h14-12--|
A|--------------------------------------------------------|
E|--------------------------------------------------------|

[Rest] 
(1:59-2:17)

[Bridge]
(same as the first one) (2:17-2:35)


[Interlude]

 (2:35-2:48)
e|-3-0-0-0--3-0-0-0--3-0-0-0--3-0-0-0---------------------|
B|-2-0-0-0--2-0-0-0--2-0-0-0--2-0-0-0----------7--------7-|
G|-2-x-x-x--2-x-x-x--2-x-x-x--2-x-x-x--------8--------6---|
D|-2-2-2-2--2-2-2-2--2-2-2-2--2-2-2-2------9--------7-----|
A|-0-2-2-2--0-2-2-2--0-2-2-2--0-2-2-2---------------------|
E|---0-0-0----0-0-0----0-0-0----0-0-0----7-------5--------|


[Solo]

 (2:48-3:23)
e|-------------------------------------------------------------------|
B|--------------(12)-----------(12)-------------(12)-----------(12)--|
G|---------------12-------------12---------------12-------------12---|
D|--/14-14p12h14----12h14p12h14-----/14-14p12h14----12h14p12h14------|
A|-------------------------------------------------------------------|
E|-------------------------------------------------------------------|

e|----------------------------------------12----------12----------------|
B|-------------------------------------------15p12---------12-12--------|
G|/14-14p12--14-12-14p12-14p12-14p12--14b---------14----14b-----14p12---|
D|---------14--------------------------------------------------------14-|
A|----------------------------------------------------------------------|
E|----------------------------------------------------------------------|

e|-------------------------------------------------------------------|
B|--------------(12)-----------(12)-------------(12)-----------(12)--|
G|---------------12-------------12---------------12-------------12---|
D|--/14-14p12h14----12h14p12h14-----/14-14p12h14----12h14p12h14------|
A|-------------------------------------------------------------------|
E|-------------------------------------------------------------------|

e|---------------------------------------12----------12--12-12-12-12--12--12--|
B|------------------------------------------15p12--------15b------15b-----15b-|
G|/14-14p12--14-12-14p12-14p12-14p12--14b---------14--------------------------|
D|---------14-----------------------------------------------------------------|
A|----------------------------------------------------------------------------|
E|----------------------------------------------------------------------------|

e|-----------15b---------15b--------------15b---------15b--/17-17p15---17-15-17p15-17p15---17b-15-12---------|
B|---17p15h17----17p15h17-----/17-17p15h17----17p15h17--------------17------------------17----------15-------|
G|-----------------------------------------------------------------------------------------------------12--12|
D|-------------------------------------------------------------------------------------------------------14--|
A|-----------------------------------------------------------------------------------------------------------|
E|-----------------------------------------------------------------------------------------------------------|

e|-------------15b---------15b--------------15b---------15b--------------15b---------15b---|
B|-/17-17p15h17----17p15h17-----/17-17p15h17----17p15h17-----/17-17p15h17----17p15h17------|
G|-----------------------------------------------------------------------------------------|
D|-----------------------------------------------------------------------------------------|
A|-----------------------------------------------------------------------------------------|
E|-----------------------------------------------------------------------------------------|

e|--------------------------------------------------|
B|---12---------------------------------------------|
G|14b---14p12-14p12--12-----------------------------|
D|-----------------14----14p12-14p12--12------------|
A|----------------------------------14--14p12-14p12-|
E|--------------------------------------------------|


[Outro]
(same as the second half of the intro + main riff) (3:23-3:49)



************************************

| x    Dead note
| (n)  Ghost note
| h    Hammer-on
| p    Pull-off
| b    Bend
| /    Slide up

************************************
Suggest correction
comments
print report bad tab
2 comments total.
+1 reply
barrylyndon698 10 Sep 29, 2016 01:57 PM

Great tab ! Thanks !

0 reply
MichalisLalo 41 Oct 02, 2016 01:28 PM

Thanks a lot mate! :)

guest
You may want to rate the tab now too:
select rating
Wanna post a correction for this tab? Suggest correction