Oops, an error
Loading. Please wait.

Save Yourself intro tab

version 1
version 1

Intro

by Kaleo
1,879 views 96 this week
no commentswrite comment
1 2 3 4 5
x 6
add to favorites
×
Save as Personal and add changes to this tab that will be seen only by you. Learn more ›
×
You can save this tab as Personal to edit and correct it or add notes. All changes will be seen only by you. Learn more »
launch autoscroll
font size
0
reset
how to read this tab
guitar tuner
edit
Autoscroll
slow
fast
+/-
esc
set tempo
stop
Capo 3

Swung rhythm (triplet feel)
Chord names relative to shapes given on top
Chord names as they sound given on bottom

e|-----0-0h3---0-0h3---0-0h3-0-------|---------------------------------|
B|-----1-1-----1-1-----1-1-----1h3p1-|-----1-----1-------1-------------|
G|-----2-------2-------2-------------|-----0-----0-------0-------0-----|
D|-----2-------2-------2-------------|-0h2---0h2-----0h2----0h2----0---|
A|-0---------------------------------|-3-----------3-----------------3-|
E|-----------------------------------|---------------------------------|
   1   2   3   4   1   2   3   4       1   2   3   4   1   2   3   4
   Am7                                 C
   Cm7                                 Eb

e|-------------------1-------------|-------0---0-------0---0---------|
B|-----------1-------1-------0-----|-------1---1---1---1---1---3-3-3-|
G|-------0h2-2---0h2-2--0h2--0---0-|-----0-0---0-----------0---0-0-0-|
D|-----------------------------3---|-0h2-2-------2-------2-----------|
A|-----3-------3-------3-----------|-3---3-------3-------3-----------|
E|-1---1-------1-------1-----------|---------------------------------|
   1   2   3   4   1   2   3   4     1   2   3   4   1   2   3   4
   F                                 C
   Ab                                Eb

            
            
Suggest correction
Creating personal tab
Creating personal tab
You can edit any tab online and save it as your Personal.

You can edit, replace or remove any tab part or add personal notes – all changes will be seen only by you.

Personal tabs can be accessed anytime from any device, even offline.
Learn more »
comments
print report bad tab
guest
You may want to rate the tab now too:
select rating
Wanna post a correction for this tab? Suggest correction