Oops, an error
Loading. Please wait.

Up In The Sky intro tab

version 2
version 2

Intro

  • Slight use of a chorus or delay pedal will give yo... Show more
by Kaleo
127 views 12 this week
no commentswrite comment
1 2 3 4 5
2 more votes to show rating
add to favorites
×
Save as Personal and add changes to this tab that will be seen only by you. Learn more ›
×
You can save this tab as Personal to edit and correct it or add notes. All changes will be seen only by you. Learn more »
launch autoscroll
font size
0
reset
how to read this tab
guitar tuner
edit
Autoscroll
slow
fast
+/-
esc
set tempo
stop
From https://www.youtube.com/watch?v=s39vjxvHgtc
(0.00-0.17)
[Intro]
(The bass notes in () should be played very softly or not at all)
e|-4------4---5--------5---5--------5---4----------4---------|
B|----3-----3-----2------2--------------------5------5-------|
G|------------------------------5-----5----------------------|
D|-----------------------------------------------------------|
A|-----------------------------------------------------------|
E|-0-----------(0)------------0-----------(0)----------------|

e|-4-------4---5--------5---5--------5---4----------4--------|
B|-----3-----3-----2------2--------------------5------5------|
G|-------------------------------5-----5---------------------|
D|-----------------------------------------------------------|
A|-----------------------------------------------------------|
E|---0-----------0------------0------------(0)---------------|

(There is a very sublte slide at the first note of the song which can be played like this)
e|-------4---5--------5---5--------5---4----------4----------|
B|-9\-3-----3-----2------2--------------------5------5-------|
G|------------------------------5-----5----------------------|
D|-----------------------------------------------------------|
A|-----------------------------------------------------------|
E|-0-----------(0)------------0-----------(0)----------------|


************************************

| (n)  Ghost note
| \    Slide down

************************************

            
            
Suggest correction
Creating personal tab
Creating personal tab
You can edit any tab online and save it as your Personal.

You can edit, replace or remove any tab part or add personal notes – all changes will be seen only by you.

Personal tabs can be accessed anytime from any device, even offline.
Learn more »
Give kudos to tab author, rate the tab!
1 2 3 4 5
comments
print report bad tab
guest
You may want to rate the tab now too:
select rating
Wanna post a correction for this tab? Suggest correction