Oops, an error
Loading. Please wait.

Way Down We Go Bass

version 1
version 1

Whole song

Interactive

by Kaleo
5,548 views 93 this week
no commentswrite comment
1 2 3 4 5
x 6
add to favorites
×
Save as Personal and add changes to this tab that will be seen only by you. Learn more ›
×
You can save this tab as Personal to edit and correct it or add notes. All changes will be seen only by you. Learn more »
save as personal
new!
launch autoscroll
font size
0
reset
guitar tuner
Autoscroll
slow
fast
+/-
esc
set tempo
stop
Author
Difficulty
novice
Tuning: Standard


[Intro]

G|-------------|
D|-------------|
A|-------------| x2
E|-6~-4~-2~-6~-|


[Verse A]

(And way down we go…)

G|---------------------------------|
D|---------------------------------|
A|-----------------6-6-6-6-6-6-6-6—| x3
E|-6-6-0-0—2-0-2-0-----------------|


[Verse B]

G|----------------------|
D|----------------------|
A|-----------------6~---|
E|-6-6-0-0—2-0-2-0------|


[Verse A]

(You let your feet run wild…)

G|---------------------------------|
D|---------------------------------|
A|-----------------6-6-6-6-6-6-6-6—| x7
E|-6-6-0-0—2-0-2-0-----------------|


[Verse B]

G|-----------------------|
D|-----------------------|
A|-----------------6-6---|
E|-6-6-0-0—2-0-2-0-------|


[Verse A]

(And way down we go...)

G|---------------------------------|
D|---------------------------------|
A|-----------------6-6-6-6-6-6-6-6—| x3
E|-6-6-0-0—2-0-2-0-----------------|


[Verse B]

G|-----------------------|
D|-----------------------|
A|-----------------6-6---|
E|-6-6-0-0—2-0-2-0-------|


[1st Solo]

G|---------|
D|---------|
A|-6—6—6—6—| x4
E|---------|


[Bridge/2nd Solo]

(Play with boost or distortion in the solo section)

G|----------------------------------|
D|-----6-8------------6-8-----------|
A|-6-8-----6-8----6-8-----6-8-------| x20
E|-------------6--------------6-----|
Suggest correction
comments
print report bad tab
guest
You may want to rate the tab now too:
select rating
Wanna post a correction for this tab? Suggest correction