Oops, an error
Loading. Please wait.

Way Down We Go Tab

version 1
version 1

Whole song

Interactive

Video

by Kaleo
57,358 views 825 this week
1 commentread comment
1 2 3 4 5
x 45
add to favorites
×
Save as Personal and add changes to this tab that will be seen only by you. Learn more ›
×
You can save this tab as Personal to edit and correct it or add notes. All changes will be seen only by you. Learn more »
save as personal
new!
launch autoscroll
font size
0
reset
how to read this tab
guitar tuner
Autoscroll
slow
fast
+/-
esc
set tempo
stop
Author
Tuning
E A D G B E
-------------------------------------------------------------------------------
                             Way Down We Go - Kaleo
-------------------------------------------------------------------------------
Tabbed by: Oli
Tuning: Standard


[0.00 - 0.19]

e|-6---------4------------2--------6---6-----|--------2---------6--6-----|
B|-6---------4------------2--------7---6-----|--------2---------7--6-----|
G|-6---------5------------3--------8---6-----|--------3---------8--6-----|
D|-8---------6------------4--------8---8-----|--------4---------8--8-----|
A|-8---------6------------4--------6---8-----|--------4---------6--8-----|
E|-6---------4------------2------------6-----|--------2------------6-----|
  Oh  Father tell me,  we get what we deserve. Oh, we get, what we deserve.


[0.20 - 0.31]

e|-----------------6-6-xx---2x2x---6---6--6-6-6-6-6---|------------------6-6-xx---2x2x---6---6--6-6-6-6-6--|
B|-----------------6-6-xx---2x2x---7---7--7-7-7-7-7---|------------------6-6-xx---2x2x---7---7--7-7-7-7-7--|
G|-----------------6-6-xx---3x3x---8---8--8-8-8-8-8---|------------------6-6-xx---3x3x---8---8--8-8-8-8-8--|
D|-----------------8-8-xx---4x4x---8---8--8-8-8-8-8---|------------------8-8-xx---4x4x---8---8--8-8-8-8-8--|
A|-----------------8-8-xx---4x4x---6---6--6-6-6-6-6---|------------------8-8-xx---4x4x---6---6--6-6-6-6-6--|
E|-----------------6-6-xx---2x2x----------------------|------------------6-6-xx---2x2x---------------------|
 And way down we go (go go go go)                      And way down we go (go go go go)


[0.32 - 0.43]

e|-----------------6-6-xx---2x2x---6---6--6-6-6-6-6---|------------------6-6-xx---2x2x---6-----------------|
B|-----------------6-6-xx---2x2x---7---7--7-7-7-7-7---|------------------6-6-xx---2x2x---7-----------------|
G|-----------------6-6-xx---3x3x---8---8--8-8-8-8-8---|------------------6-6-xx---3x3x---8-----------------|
D|-----------------8-8-xx---4x4x---8---8--8-8-8-8-8---|------------------8-8-xx---4x4x---8-----------------|
A|-----------------8-8-xx---4x4x---6---6--6-6-6-6-6---|------------------8-8-xx---4x4x---6-----------------|
E|-----------------6-6-xx---2x2x----------------------|------------------6-6-xx---2x2x---------------------|
 Say way down we go                                    Way down we go 


[0.44 - 0.55]

e|-------------------6--------2---6-|---------------------6---2------6---|
B|-------------------6--------2---7-|---------------------6---2------7---|
G|-------------------6--------3---8-|---------------------6---3------8---|
D|-------------------8--------4---8-|---------------------8---4------8---|
A|-------------------8--------4---6-|---------------------8---4------6---|
E|-------------------6--------2-----|---------------------6---2----------|
   Woah You let your feet run wild    Time has come as we all oh, go down


[0.56 - 1.07]

e|------------------6--2-----6-|-------------------------6-----------------2--------6-|
B|------------------6--2-----7-|-------------------------6-----------------2--------7-|
G|------------------6--3-----8-|-------------------------6-----------------3--------8-|
D|------------------8--4-----8-|-------------------------8-----------------4--------8-|
A|------------------8--4-----6-|-------------------------8-----------------4--------6-|
E|------------------6--2-------|-------------------------6-----------------2----------|
   Yeah but for the fall oh, my  Do you dare to look him right in the eyes?   (Yeah)


[1.08 - 1.13]

e|------------------6---6---6-----6----6---6---4--4-4---4-4--|
B|------------------6---6---6-----6----6---6---4--4-4---4-4--|
G|------------------6---6---6-----6----6---6---5--5-5---5-5--|
D|------------------8---8---8-----8----8---8---6--6-6---6-6--|
A|------------------8---8---8-----8----8---8---6--6-6---6-6--|
E|------------------6---6---6-----6----6---6---4--4-4---4-4--|
   'Cause they will run you down, down til the dark


[1.14 - 1.19]

e|-------------------2---2---2-----2-2--2---2---6--6-6---6-|
B|-------------------2---2---2-----2-2--2---2---7--7-7---7-|
G|-------------------3---3---3-----3-3--3---3---8--8-8---8-|
D|-------------------4---4---4-----4-4--4---4---8--8-8---8-|
A|-------------------4---4---4-----4-4--4---4---6--6-6---6-|
E|-------------------2---2---2-----2-2--2---2--------------|
   Yes and they will run you down, down til you fall


[1.20- 1.25]

e|---------------6---6---6-----6----6---6---4--4-4---4-4--|
B|---------------6---6---6-----6----6---6---4--4-4---4-4--|
G|---------------6---6---6-----6----6---6---5--5-5---5-5--|
D|---------------8---8---8-----8----8---8---6--6-6---6-6--|
A|---------------8---8---8-----8----8---8---6--6-6---6-6--|
E|---------------6---6---6-----6----6---6---4--4-4---4-4--|
   And they will run you down, down til you go


[1.26 - 1.30]

e|-------------------2-----2--2-----2-2----6--|
B|-------------------2-----2--2-----2-2----7--|
G|-------------------3-----3--3-----3-3----8--|
D|-------------------4-----4--4-----4-4----8--|
A|-------------------4-----4--4-----4-4----6--|
E|-------------------2-----2--2-----2-2-------|
   Yeah so you can't crawl no more


[1.30 - 1.42]

e|-----------------6-6-xx---2x2x---6---6--6-6-6-6-6---|------------------6-6-xx---2x2x---6---6--6-6-6-6-6--|
B|-----------------6-6-xx---2x2x---7---7--7-7-7-7-7---|------------------6-6-xx---2x2x---7---7--7-7-7-7-7--|
G|-----------------6-6-xx---3x3x---8---8--8-8-8-8-8---|------------------6-6-xx---3x3x---8---8--8-8-8-8-8--|
D|-----------------8-8-xx---4x4x---8---8--8-8-8-8-8---|------------------8-8-xx---4x4x---8---8--8-8-8-8-8--|
A|-----------------8-8-xx---4x4x---6---6--6-6-6-6-6---|------------------8-8-xx---4x4x---6---6--6-6-6-6-6--|
E|-----------------6-6-xx---2x2x----------------------|------------------6-6-xx---2x2x---------------------|
 And way down we go (go go go go)                      And way down we go (go go go go)


[1.42 - 1.53]

e|-----------------6-6-xx---2x2x---6---6--6-6-6-6-6---|---------------4---4---4-----4----4---4---6--|
B|-----------------6-6-xx---2x2x---7---7--7-7-7-7-7---|---------------4---4---4-----4----4---4---7--|
G|-----------------6-6-xx---3x3x---8---8--8-8-8-8-8---|---------------5---5---5-----5----5---5---8--|
D|-----------------8-8-xx---4x4x---8---8--8-8-8-8-8---|---------------6---6---6-----6----6---6---8--|
A|-----------------8-8-xx---4x4x---6---6--6-6-6-6-6---|---------------6---6---6-----6----6---6---6--|
E|-----------------6-6-xx---2x2x----------------------|---------------4---4---4-----4----4---4------|
 Say way down we go                                     And they will run you down, down til you go


[1.53 - 1.55]

e|--------------------|
B|--------------------|
G|--------------------|
D|--------------------|
A|--------------------|
E|--------------------|
   Oh way down (we go)


[Solo]

[1.56 - 2.09]

e|------------------------------------------------------------------------------------------------------|
B|---------------------------------------------------------------------------------------------11-9-----|
G|---------6b8-----8b10br8-6-8b10br8-6---------6b8-----------8b10br8-6-8b10br8------------8s10------10--|
D|-----6h8-----8-----------------------8-6-8-------8-6-8----8------------------8--6-8-------------------|
A|-6h8--------------------------------------------------------------------------------------------------|
E|------------------------------------------------------------------------------------------------------|


[2.09 - 3.05]

e|-------------6-------6-----6--|--6-------6---4-------4-----4---|
B|-------------6-------6-----6--|--6-------6---4-------4-----4---|
G|-------------8-------8-----8--|--8-------8---5-------5-----5---|
D|-------------8-------8-----8--|--8-------8---6-------6-----6---|
A|-------------6-------6-----6--|--6-------6---6-------6-----6---|
E|-------------6-------6-----6--|--6-------6---4-------4-----4---|
   Ooh ooh ooh ooh ooh ooooh ooh   Ooh ooh ooh ooh ooh ooooh ooh

e|-4-------4---2-------2-----2---|--2-----2---2-----6---6-6---6--|
B|-4-------4---2-------2-----2---|--2-----2---2-----7---7-7---7--|
G|-5-------5---3-------3-----3---|--3-----3---3-----8---8-8---8--|
D|-6-------6---4-------4-----4---|--4-----4---4-----8---8-8---8--|
A|-6-------6---4-------4-----4---|--4-----4---4-----6---6-6---6--|
E|-4-------4---2-------2-----2---|--2-----2---2------------------|
   Ooh ooh ooh ooh ooh ooooh ooh    Ooooh Oooooooh  ooh ooh ooh

e|-------------6-------6-----6--|--6-------6---4-------4-----4---|
B|-------------6-------6-----6--|--6-------6---4-------4-----4---|
G|-------------8-------8-----8--|--8-------8---5-------5-----5---|
D|-------------8-------8-----8--|--8-------8---6-------6-----6---|
A|-------------6-------6-----6--|--6-------6---6-------6-----6---|
E|-------------6-------6-----6--|--6-------6---4-------4-----4---|
   Ooh ooh ooh ooh ooh ooooh ooh   Ooh ooh ooh ooh ooh ooooh ooh

e|-4-------4---2-------2-----2---|--2-----2---2-----6---6-6---6--|
B|-4-------4---2-------2-----2---|--2-----2---2-----7---7-7---7--|
G|-5-------5---3-------3-----3---|--3-----3---3-----8---8-8---8--|
D|-6-------6---4-------4-----4---|--4-----4---4-----8---8-8---8--|
A|-6-------6---4-------4-----4---|--4-----4---4-----6---6-6---6--|
E|-4-------4---2-------2-----2---|--2-----2---2------------------|
   Ooh ooh ooh ooh ooh ooooh ooh    Ooooh Oooooooh  ooh ooh ooh

(Play over top from 2.32 - 2.55)
e|---------------------------------------------------------------|
B|------------------------------------------------------9s11-11--|
G|-------6---------------6---------------6---8b10r8-6---8s10-10--|
D|---6-8---8-6-8-----6-8---8-6-8-----6-8---8---------8-----------|
A|6-8---------------6---------------6----------------------------|
E|---------------------------------------------------------------|

(Play over top from 2.55 - 3.05)
e|---------------------------------------------------|
B|---------------------------------------------------|
G|-------6-------------------------------------------|
D|---6-8---8-6-8-----6-8-6---------------------------|
A|-8---------------8-------8-6s4s6--4----------------|
E|------------------------------------6---------4s6--|


[3.05 - 3.16]

e|-----------------6-----2-----6---|-----------------6------2-----6---|
B|-----------------6-----2-----7---|-----------------6------2-----7---|
G|-----------------6-----3-----8---|-----------------6------3-----8---|
D|-----------------8-----4-----8---|-----------------8------4-----8---|
A|-----------------8-----4-----6---|-----------------8------4-----6---|
E|-----------------6-----2---------|-----------------6------2---------|
  And way down we go (go go go go)       Way down we go (go go go go)


[3.17 - 3.30]

e|----------------6-----2-----6---|--------------6------2-----6---|
B|----------------6-----2-----7---|--------------6------2-----7---|
G|----------------6-----3-----8---|--------------6------3-----8---|
D|----------------8-----4-----8---|--------------8------4-----8---|
A|----------------8-----4-----6---|--------------8------4-----6---|
E|----------------6-----2---------|--------------6------2---------|
  Say way down we go                 Way down we go 

End the final chord with a smooth bit of whammy bar or something like that. If that's what floats your boat.
No donations accepted. Go buy a kit kat or something instead.


************************************

| x   Dead note
| h   Hammer-on
| r   Release
| b   Bend
| br  Bend release
| s   Slide

************************************
Suggest correction
comments
print report bad tab
1 comment total.
0 reply
archieHSS 17 Apr 20, 2017 02:03 AM

Not only is this great, you seem like a legend. Thanks

guest
You may want to rate the tab now too:
select rating
Wanna post a correction for this tab? Suggest correction