Oops, an error
Loading. Please wait.

A Blanco Y Negro tab

134 views 1 this week
no commentswrite comment
1 2 3 4 5
3 more votes to show rating
add to favorites
×
Save as Personal and add changes to this tab that will be seen only by you. Learn more ›
×
You can save this tab as Personal to edit and correct it or add notes. All changes will be seen only by you. Learn more »
launch autoscroll
font size
0
reset
how to read this tab
guitar tuner
edit
Autoscroll
slow
fast
+/-
esc
set tempo
stop
Solo para ti amor eterno ¡¡¡

intro
e20-19-20-19---------20-19-20-19--------15-14--20-19-20-19---------
B------------17-17---------------17-17---------------------17-1715-
G------------------------------------------------------------------
D------------------------------------------------------------------
A------------------------------------------------------------------
E------------------------------------------------------------------

e------20-19-20-19------------14--20-19-20-19----------------------
B1715--------------17-1715-17-----------------17-1715-1715---------
G------------------------------------------------------------12-12-
D------------------------------------------------------------------
A------------------------------------------------------------------
E------------------------------------------------------------------

e------15-15-----15-15-14-12-1412------14-14-12----12---------12-12
B12-15--------15-----------------15-15----------15---1513--13------
G------------------------------------------------------------------
D------------------------------------------------------------------
A------------------------------------------------------------------
E------------------------------------------------------------------

e---------------
B15-13-151312---
G---------------
D---------------
A---------------
E---------------

SOL
Quiero aprender a volar
          DO    RE     SOL
Y si tú me besas yo toco las nubes
          SOL
Quiero aprender a cantar
           DO        RE
Y si me acaricias le gano a Diomedes
           DO
Quiero aprender a olvidar
      RE           SOL
Y tú eres la única que puede
                    RE
Ay arrancarme del alma
DO                          SOL
Esos recuerdos que tanto duelen

I
(coro)
SOL                     (SOL) (LAm)       RE
Y tú eres la que puede pintar con mil colores
RE                 DO                    SOL
Mi mundo a blanco y negro borrar mis decepciones
SOL                  (SOL) (LAm)        RE
Y tú eres la que puede arrancarme los años
RE                   DO                  SOL
Para ser siempre joven y estar siempre a tu lado

SOL                    RE     DO          SOL
Por tantos años viví en mil amores viví equivocado
DO                         (((Sim)))      LAm
Pretendía encontrar una rosa en un árbol caído
RE                  DO                  SOL
Y por eso casi me caigo al final de abismo
SOL             (DO)                      RE)  SOL
Pero tus ojos con una mirada del fin me sacaron
SOL                        (SOL)    (LAm)    RE
Y tú eres la que puede pintar con mil colores
RE                 DO                    SOL
Mi mundo a blanco y negro borrar mis decepciones

II
        SOL
Yo no quiero envejecer
       DO      RE          SOL
Y si estas conmigo le gano a los años
SOL
Me llenas de juventud
DO                          RE
Con solo mirar tu carita inocente
DO
Asegúrame Jesús
RE                                   SOL
Que después de mi no habrá otro que la bese
RE
Y te prometo que siempre
DO                                    SOL
Voy a quererla hasta el día de mi muerte

(coro)
SOL                     (SOL) (LAm)       RE
Y tú eres la que puede pintar con mil colores
RE                 DO                    SOL
Mi mundo a blanco y negro borrar mis decepciones
SOL                  (SOL) (LAm)        RE
Y tú eres la que puede arrancarme los años
RE                   DO                  SOL
Para ser siempre joven y estar siempre a tu lado

SOL                    RE     DO          SOL
Por tantos años viví en mil amores viví equivocado
DO                         (((Sim)))      LAm
Pretendía encontrar una rosa en un árbol caído
RE                  DO                  SOL
Y por eso casi me caigo al final de abismo
SOL             (DO)                      RE)  SOL
Pero tus ojos con una mirada del fin me sacaron


(coro)
SOL                        (SOL)    (LAm)    RE
Y tú eres la que puede pintar con mil colores
RE                 DO                    SOL
Mi mundo a blanco y negro borrar mis decepciones

SOL                   (SOL) (LAm)          RE
Y tu eres la que puede arrancarme los años
RE                     DO                      SOL
 para estar siempre joven y estar siempre a tu lado.

III
SOL                   (DO )(Sim)
Y tú eres la que puede   hehehe??
(SOL)    DO      SOL
hehehe?..hehehe

            
            
Suggest correction
Creating personal tab
Creating personal tab
You can edit any tab online and save it as your Personal.

You can edit, replace or remove any tab part or add personal notes – all changes will be seen only by you.

Personal tabs can be accessed anytime from any device, even offline.
Learn more »
Give kudos to tab author, rate the tab!
1 2 3 4 5
comments
print report bad tab
guest
Wanna post a correction for this tab? Suggest correction