Oops, an error
Loading. Please wait.

Mi Guitarra tab

46 views 3 this week
no commentswrite comment
1 2 3 4 5
3 more votes to show rating
add to favorites
×
Save as Personal and add changes to this tab that will be seen only by you. Learn more ›
×
You can save this tab as Personal to edit and correct it or add notes. All changes will be seen only by you. Learn more »
launch autoscroll
font size
0
reset
how to read this tab
guitar tuner
edit
Autoscroll
slow
fast
+/-
esc
set tempo
stop
aqui les mando la letra de esta cancion buensisisima
ahi les  favor califiquen.

por daniel rodrigues

la que tolera todos mi arranques la que siempre se encuentra a mi
lado en los dias que soy arrogante la  que en silencio me dice
cantante por que te encuentras tan solitario ven y olvida lo
triste de antes.
e-0--------------------------------------------------------------
B---2-2-3-2-0-0-0-2-0--------0----------------0-2-0-0-0-2-0-2-2-3
G---------------------2--2-2---2-2-2-1-1-1-2-2-------------------
D----------------------------------------------------------------
A----------------------------------------------------------------
E----------------------------------------------------------------

y mis alegrias yo las vivo con ella y en la oscuridad siempre ha
sido mi estrella aunque muchos no la consideran tan bella en mi
corazon siempre sera una doncella.

e----------------------------------------------------
B-0-0-0-0-3-3-2-0-0-0-0-2-0----3-3-3-3-2-0-0-0----2-0
G---------------------------2-------------------2----
D----------------------------------------------------
A----------------------------------------------------
E----------------------------------------------------
-
e--------------------------0-----------------------------
B-3-3-3-3--2-2-2-2-0-0-0-----2--3-3-3-3-3-2-2-0-0-0---2-0
G------------------------2--------------------------2----
D--------------------------------------------------------
A--------------------------------------------------------
E--------------------------------------------------------

CORO

hoy van a saber cuanto la quiero yo hoy van  a saber que
la quiero mucho si por ella fueque todo cambio cuando
aparecio en mi mundo.

e-0-0-0---0---0---0---0-------------------------
B-------2---2---2---2----2-2-2-2-2--2-2-3-2-3-2-
G-----------------------------------------------
D-----------------------------------------------
A-----------------------------------------------
E-----------------------------------------------

e-----------0---------------------------
B---------0---2-2-3-2---2-2-2-2-2-0-3-3-
G-2-2-2-2-------------2-----------------
D---------------------------------------
A---------------------------------------
E---------------------------------------

POSTCORO

se que han pasado los años  y todavia se encuentra conmigo
mas largo que un mes de mayo y son las horas  en que no esta
con migo.

e-------------0--------------------------2-0---------0---
B-----------0---2--2-2-2-3-2-0-0-0-2-2-3-----2-2-0-------
G-2-2-2-2-2----------------------------------------2-----
D--------------------------------------------------------
A--------------------------------------------------------
E--------------------------------------------------------

e----------------------
B-2-2-2-3-2-0-0-0-2-2-3
G----------------------
D----------------------
A----------------------
E----------------------

EN LAS OTRAS ESTROFAS VERSOS Y REPETICION DE
CORO SE REPITE LO MISMO.
ESTO VA CON MUCHO CARIÑO PARA LA GENTE DE LA 

            
            
Suggest correction
Creating personal tab
Creating personal tab
You can edit any tab online and save it as your Personal.

You can edit, replace or remove any tab part or add personal notes – all changes will be seen only by you.

Personal tabs can be accessed anytime from any device, even offline.
Learn more »
Give kudos to tab author, rate the tab!
1 2 3 4 5
comments
print report bad tab
guest
Wanna post a correction for this tab? Suggest correction