Oops, an error
Loading. Please wait.

Sombra De Mi Alma tab

version 1
version 1

Whole song

63 views 6 this week
no commentswrite comment
1 2 3 4 5
3 more votes to show rating
add to favorites
×
Save as Personal and add changes to this tab that will be seen only by you. Learn more ›
×
You can save this tab as Personal to edit and correct it or add notes. All changes will be seen only by you. Learn more »
launch autoscroll
font size
0
reset
how to read this tab
guitar tuner
edit
Autoscroll
slow
fast
+/-
esc
set tempo
stop
este es el intro de la canción suena bien casi como la original
Intro: G G D D C C D D X2


e---7/8---10------10--10---8--8--7-7------------7--8--7------------------
B--------------7----------------------10----10-----------10-10-10--8-10-10-10-8
G------------------------------------------------------------------------
D------------------------------------------------------------------------
A------------------------------------------------------------------------
E------------------------------------------------------------------------


e---7/8---10------10/12---12--10--10--8--8--7----7--7--8--7-------------7--
B--------------7-----------------------------------------------10--10--8---
G--------------------------------------------------------------------------
D--------------------------------------------------------------------------
A--------------------------------------------------------------------------
E--------------------------------------------------------------------------


         G                          D
No Sabes que tuve que hacer para poder decirte
           Em                 Bm
Lo que voy a contarte en esta noche trizte
          C          Bm         Am
Pues ya mañana lejos muy lejos tengo que irme
            C                    D
Y aunque me duela e venido para despedirme
        G                        D
Fuimos amigos muchos años y eso bien lo entiendo
              Em                    Bm
Y hoy vengo a confesarte lo que siento hace tiempo
           C            Bm        Am
Tiembla mi vos y poco a poco me cobija el miedo
         C                     D
No se si corra o sera mejor quedarme quieto
       G               Bm                       C
Te comprendo tu no esperabas que te saliera con esto
                    D                            G
Y hoy te ries en mi cara y me preguntas si es en juego
         Bm                          C
Mira mis ojos y date cuenta que es encerio
                      D                     G
No hay palabras disfrazadas Y me sobran argumentos
       Am                     C                 D
Para decirte que te amo y que vivir sin ti no puedo

Aunque quiera no doy

Coro
              G                   Em                    Bm
Nena tu no imaginas cuantas veces me toco negar que te amaba
             C     (B)     Am
Y entender que era otra persona
             C                          D
A la que adorabas y hasta el mundo le dabas
                  G
Hasta el mundo le dabas...

            
            
Suggest correction
Creating personal tab
Creating personal tab
You can edit any tab online and save it as your Personal.

You can edit, replace or remove any tab part or add personal notes – all changes will be seen only by you.

Personal tabs can be accessed anytime from any device, even offline.
Learn more »
Give kudos to tab author, rate the tab!
1 2 3 4 5
comments
print report bad tab
guest
Wanna post a correction for this tab? Suggest correction