Oops, an error
Loading. Please wait.

Sombra De Mi Alma tab

version 2
version 2

Whole song

36 views 1 this week
no commentswrite comment
1 2 3 4 5
3 more votes to show rating
add to favorites
×
Save as Personal and add changes to this tab that will be seen only by you. Learn more ›
×
You can save this tab as Personal to edit and correct it or add notes. All changes will be seen only by you. Learn more »
launch autoscroll
font size
0
reset
how to read this tab
guitar tuner
edit
Autoscroll
slow
fast
+/-
esc
set tempo
stop
ESTA ES UNA DE LAS MEJORES COMPOSICIONES DE
KALETH MORALES, LLEVA CONSIGO UN GRAN SENTIMIENTO
Y UNA LINDA MELODÍA ESPERO QUE LE GUSTE.
LAS NOTAS QUE ESTÁN EN PARÉNTESIS SON BAJOS LOS
CUALES SE TOCAN COMO ILUSTRAN LAS FIGURAS.

BAJOS EN LAS ESTROFAS:

e||--------------------|-------------------------||
B||--------------------|-------------------------||
G||--------------------|-------------------------||
D||--------------------|-------------------------||
A||----------3---------|--2----------0-----------||
E||--------------------|-------------------------||
   Pues ya mañana lejos  muy lejos tengo que irme

e||----------------------------|---------------||
B||----------------------------|---------------||
G||----------------------------|---------------||
D||----------------------------|---------re----||
A||--------------3-----2-------|-3-------------||
E||----------------------------|---------------||
   Y aunque me duela he venido  para despedirme

?DE IGUAL FORMA EN LAS MISMAS PARTES DE LAS
 OTRAS ESTROFAS?

BAJOS EN EL CORO:

e||-------------------------------||
B||-------------------------------||
G||-------------------------------||
D||-------------------------------||
A||------------3--------0---3-----||
E||----------------3--------------||
   Y entender que era otra persona

e||-------------------------------------------||
B||-------------------------------------------||
G||-------------------------------------------||
D||---------------------------------------re--||
A||---2------------------0--------------------||
E||-------------------------------------------||
   A la que adorabas y hasta el mundo le dabas


G
No sabes que tuve que hacer
       D
Para poder decirte

        Em
Lo que voy a contarte
         Bm
En esta noche triste
         (C)
Pues ya mañana lejos
(Bm)       (Am)
Muy lejos tengo que irme
          (C)   (Bm)
Y aunque duela he venido
(C)      D
Para despedirme.

Fuimos amigos muchos años
Eso bien lo entiendo
Y quiero confesarte
Lo que siento hace tiempo
Tiembla mi voz y
Poco a poco me cobija el miedo
No se si corra o será mejor
Quedarme quieto.

Precoro:
      G
Te comprendo.

        Bm                           C
Tú no esperabas que te saliera con esto
                      D
Y hoy te ríes en mi cara
                      G
Y me pregunta si es juego
          Bm                           C
Mira mis ojos y date cuenta que es enserio
                      D
No hay palabras disfrazadas
                 G
Y me sobran argumentos.

        Am
Para decirte que te amo
        C               D
Y que vivir sin ti no puedo

Y aunque quiera no doy
Coro:
             G
Nena tu no imaginas
              Em                     Bm
Cuantas veces me toco negar que te amaba

           (C) (G)  (A) (C)
Y entender que era otra persona

 (Bm)               (Am)                D
A la que adorabas y hasta el mundo le dabas. [X2]

D                     G
Y hasta el mundo le dabas.

           II

Cada segundo esta arrastrando
La hora de marcharme
Al momento preciso
Donde duele dejarte
Si por mí fuera
De inmediato dejaría de amarte
Pero no puedo porque
El corazón podría odiarme.

Voy a esconderme en el silencio
Para no extrañarte
E intentare en mis sueños
Tenerte y abrazarte
No te preocupes que este tema
No vuelve a tocarse
Porque lo yo menos quiero
Es que de mi te canses.

Precoro:

Sufrimiento.

Por que te empeñas en hacerme tanto daño
Si no dejare de amarla
Aunque estemos distanciados
Y aunque yo se que a muchos les párese extraño
Ella es sombra de mi alma
Y por eso la quiero tanto.

Seré un esclavo de tu encanto
No importa que pase un milenio
Y lo juro por Dios.

Coro. (X3)

Ella es sombra de mi alma...

CREO QUE A TODOS NOS HA PASADO LO MISMO, NOS HEMOS
ENAMORADO DE UNA AMIGA MUY ESPECIAL; QUE OTRA
OCASIÓN PARA DEDICARLE ESTA CANCIÓN TAN MARAVILLOSA,
LA CUAL HIZO QUE APRENDIERA A TOCAR GUITARRA PARA
ENTONÁRSELA A LILIANA MUÑOZ.
UN SALUDO PARA LA GENTE LINDA DE COROZAL-SUCRE.
GRACIAS KALETH POR ESTA CANCION.

            
            
Suggest correction
Creating personal tab
Creating personal tab
You can edit any tab online and save it as your Personal.

You can edit, replace or remove any tab part or add personal notes – all changes will be seen only by you.

Personal tabs can be accessed anytime from any device, even offline.
Learn more »
Give kudos to tab author, rate the tab!
1 2 3 4 5
comments
print report bad tab
guest
Wanna post a correction for this tab? Suggest correction