Oops, an error
Loading. Please wait.

Todo De Cabeza bass

61 views 1 this week
no commentswrite comment
1 2 3 4 5
3 more votes to show rating
add to favorites
×
Save as Personal and add changes to this tab that will be seen only by you. Learn more ›
×
You can save this tab as Personal to edit and correct it or add notes. All changes will be seen only by you. Learn more »
launch autoscroll
font size
0
reset
guitar tuner
edit
Autoscroll
slow
fast
+/-
esc
set tempo
stop
Hay les va la voz de la cancion...es casi 100% correcta..
cualquier inquietud mi correo es gilver_451@


C9                                       Em
Hay esta es mi canción de despedidaaa, Será lo mejor para los dooss


E -------------------------------------------
B -------0-1-0-----1-1--------0-1-0----------
G -0-0-2-------2-0------0-0-2-------2-0-2/4--
D -------------------------------------------

F                                           Dm
Pues no soy el dueño de tu vida, Y lo mas grave
F             F#                G
no se por que no lo entinde el corazooooon

E -3-1-3-1-3-1-3/5/3--------0-1-1/3-3---3-3-3-1-1-0-1-1-0-1--
B -------------------1-1--1---------------------------------3
G -----------------------------------------------------------
D -----------------------------------------------------------

C9
Hay dime como ago para explicarleeee,
Em
a mi alma envuelta entre la feee

E -------------------------------------------
B -------0-1-0-----1-1--------0-1-0----------
G -0-0-2-------2-0------0-0-2-------2-0-2/4--
D -------------------------------------------

F                                          Dm
Que aunque sea difícil olvidarte debo intentarlo,
   F                    F#         G
por que creo que nunca te  podre tener

E -3-1-3-1-3-1-3/5/3--------0-1-1/3-3---3-3-3-1-1-0-1-1-0-1--
B -------------------1-1--1---------------------------------3
G -----------------------------------------------------------
D -----------------------------------------------------------

Em                 F                  G                           C
Eeh, si no deseas que me marche, demuéstrame que igual que yo quieres
amarme
E -----0------------------1-0---------------5-3-3-3-
B -0-0---3-3-1-3-1-1-1--1-----3-3-1-3-1-3-5---------
G --------------------------------------------------
D --------------------------------------------------

    F                       G
Y que tanbien te estas mueriendo por besarme

E -3-3-3-1-1-0-1-1-0-1-0-------------------
B -----------------------3-----------------
G -----------------------------------------
D -----------------------------------------

Em                F             G                       C
Y así yo intentare esperarte hasta cuando decidas entregarte

E -----0------------------1-0---------------5-3-3-3-
B -0-0---3-3-1-3-1-1-1--1-----3-3-1-3-1-3-5---------
G --------------------------------------------------
D --------------------------------------------------

   F              F#         G
A este hombre que ha hecho todo para enamorarte

E -3-3-3-1-1-0-1-1-0-1-0-------------------
B -----------------------3-----------------
G -----------------------------------------
D -----------------------------------------

  C                       F
Ay por ti estoy enloqueciendo y tengo todo de cabeza

E -0-0-1-3-1-0-1-3-3-----------------------
B --------------------1-1-1-0-1-3-3--------
G -----------------------------------------
D -----------------------------------------

G                          C
Te voy a seguir queriendo aunque tu no te des cuenta

E --------0-1-3-3---3-3-3-1-0---0----------
B -3-3-3-3--------------------3---1--------
G -----------------------------------------
D -----------------------------------------

Am                           Em
Que el maldito sufrimiento es quien causa mis tristezas

E -0---0-----------------------------------
B ---3---3-1-0-0/1---1-1-1-1-0-1-3---------
G -----------------------------------------
D -----------------------------------------

                   G                         C
Y de paso a mi conquista le va quitando las fuerzas

E --------0-1-3-3---3-3-3-1-0---0----------
B -3-3-3-3--------------------3----1-------
G -----------------------------------------
D -----------------------------------------


               C                        F
Que no puedo darte el mundo para nadie es un secreto
                  G                        C
Yo tan solo te aseguro que serás mi amor eterno
                    Am                         Em
Quien controle mi futuro y me saque de este infierno
                    G                        C
Donde lo bello y lo puro se destruye con el tiempo

Puente: C F F-F#-G F-F#-G C

BIS
Suggest correction
Creating personal tab
Creating personal tab
You can edit any tab online and save it as your Personal.

You can edit, replace or remove any tab part or add personal notes – all changes will be seen only by you.

Personal tabs can be accessed anytime from any device, even offline.
Learn more »
Give kudos to tab author, rate the tab!
1 2 3 4 5
comments
print report bad tab
guest
Wanna post a correction for this tab? Suggest correction