Oops, an error
Loading. Please wait.

Estoy Tocando Fondo chords

version 2
version 2

Whole song

by Kalimba
110 views 1 this week
no commentswrite comment
1 2 3 4 5
3 more votes to show rating
add to favorites
×
Save as Personal and add changes to this tab that will be seen only by you. Learn more ›
×
You can save this tab as Personal to edit and correct it or add notes. All changes will be seen only by you. Learn more »
launch autoscroll
font size
0
reset
transpose
0
reset
display chords
guitar tuner
edit
Autoscroll
slow
fast
+/-
esc
set tempo
stop
Strumming
There is no strumming pattern for this song yet. and get +5 IQ
Daniel Romero..Ecuador
Saludos a los visitantes del átame. Aquí les
mando esta rola de Kalimba con la tablatura y
las notas al tono del disco, ya que las demás
transcripciones tenían muchos errores.
Para entender más fácil el punteo,
chekenlo mientras escuchan la canción. Les
recomiendo usar puente en el primer traste.

Intro:

E|-----------|-----------|----------------------|
A|-----------|-----------|----------------------|
D|--3--------|--6-----6--|----------------------|
G|-----------|-----------|------8-10------6-8---|
B|----1-2----|----1-2----|--7/9------8--7-----7-|
e|--4-----4--|--4-----4--|--6/8------9--6-----6-|


 C#
Pasa la angustia
    G#
tan cerca de mí
 F#       C#     G#
cuando de aquí te alejas.
C#                G#
Sé que el insomnio sigue por ahí,
     F#        C#     G#
esperando que intente dormir.
              F#     C#
Me he quedado solo y así,
      F#     G#
no planeaba vivir,
              F#        C#
me he quedado solo y sin ti.
        F#     G#
Es tan fácil volver-se loco.

C#     C#*
Estoy tocando fondo,
G#
me niego estar sin ti,
   F#        C#
te tengo que recuperar
 F#             G#
o de una vez dejarte ir.
C#     C#*
Estoy tocando fondo,
G#
me duele hablar de ti.
     F#        C#
No quiero disimular
    F#           G#
el resto de mi vida, oh, oh, oh.

E|-----------------------------------------------|
A|-----------------------------------------------|
D|-----------------------------------------------|
G|----8-10-----10-11----------8-10---------------|
B|-7/9----9---9-----9---9/11-9----9---7----------|
e|-6/8----8---9-----9---9/11-8----8---6-6-4/4-2--|


Vuelve la angustia
a hablarme de ti
cuando de aquí te alejas.
Sé que el insomnio
sigue por ahí,
esperando que intente dormir.
Me he quedado solo y así
no planeaba vivir.
Me he quedado solo y sin tiií,
es tan fácil volverse loco.

Coro...

   C#     C#*
...Estoy tocando fondo,
G#
me duele hablar de ti.
       F#       C#
no quiero disimular
       F#
el resto de mi vida
G#               C#    G#
que no me importas más, ah, ah, ah.
  C#       G#           F#
Uuuuuuuuu, naarnarnarnarna.
  G#
uuuuuu, narnarnarna.

C#     C#*
Estoy tocando fondo,
G#
me niego estar sin ti,
   F#        C#
te tengo que recuperar, oho,
 F#             G#
o de una vez dejarte ir, oh.

C#      C#*
Estoy tocando fondo,
G#
me duele hablar de ti,
     F#         C#
no quiero disimular
     F#          G#
el resto de mi vida, oh oh oh...


E|-----------------------------------------------|
A|-----------------------------------------------|
D|-----------------------------------------------|
G|----8-10-----10-11----------8-10------6-8------|
B|-7/9----9---9-----9---9/11-9----9---7----------|
e|-6/8----8---9-----9---9/11-8----8---6-----4----|


DO#*: 310230, (con puente 1er traste)

------||||||||||----------||||||||||----------||||||||||--------|||||||||

            
            
Suggest correction
Creating personal tab
Creating personal tab
You can edit any tab online and save it as your Personal.

You can edit, replace or remove any tab part or add personal notes – all changes will be seen only by you.

Personal tabs can be accessed anytime from any device, even offline.
Learn more »
Give kudos to tab author, rate the tab!
1 2 3 4 5
comments
print report bad tab
guest
Wanna post a correction for this tab? Suggest correction