Oops, an error
Loading. Please wait.

Lajalu Muskaan Tab

760 views 3 this week
no commentswrite comment
1 2 3 4 5
please rate
add to favorites
launch autoscroll
font size
0
reset
how to read this tab
guitar tuner
Autoscroll
slow
fast
+/-
esc
set tempo
stop
Help us to improve Ultimate-Guitar.com Take our survey!
×
Author
Intro:

E --------------------------------------------|
B --7--8--8--8s10--8s7---7--8--8--8s10--------|
G --7--9--9--9s11--9s7---7--9--9--9s11--------|
D --------------------------------------------|
A --------------------------------------------|
E --------------------------------------------|

E --------------------------------------------|
B --7--8--8--8s10--8s7---7--8--8--7-----------|
G --7--9--9--9s11--9s7---7--9--9--7-----------|
D --------------------------------------------|
A --------------------------------------------|
E --------------------------------------------|

    D             Bm           G
E --------------------------------------------|
B --10-8s7---7----10-8s7---7---8-10p8-7-8-----|
G ---------9-------------9--------------------|
D --------------------------------------------|
A --------------------------------------------|
E --------------------------------------------|

           D
E --------------------------------------------|
B ---7h8p7------------------------------------|
G ---------9-9-7-7--9-9s11-9-7-9--------------|
D --------------------------------------------|
A --------------------------------------------|
E --------------------------------------------|

    D             Bm           G                 D
E ---------------------------------------------------------------|
B --10-8s7---7----10-8s7---7---8-10p8-7-8--7h8p7-----------------|
G ---------9-------------9-----------------------9-9-7-7--9-9s11-|
D ---------------------------------------------------------------|
A ---------------------------------------------------------------|
E ---------------------------------------------------------------|

              D                      Bm
E --------------------------------------------------------------|
B -----------8s10---10h12-10--10-8-7-7--------------------------|
G ------7s9--9s11-------------11-9-7-9--------------------------|
D --7-9---------------------------------------------------------|
A --------------------------------------------------------------|
E --------------------------------------------------------------|

                                A                            D
E --------------------------------------------------------------|
B --7---------------------------8s10-8--8s12--12-10--8s10--8-7--|
G ----9-7-6h7p6------------7s9--9s11-9--9s12--12-11--9s11--9-7--|
D --------------9----7-7h9--------------------------------------|
A --------------------------------------------------------------|
E --------------------------------------------------------------|

                         D                       Bm
E -----------------------8s10---10h12-10--10-8-7-7--------------|
B --8-8-8s10-8------7s9--9s11-------------11-9-7-9--------------|
G --9-9-9s11-9--7-9---------------------------------------------|
D --------------------------------------------------------------|
A --------------------------------------------------------------|
E --------------------------------------------------------------|

                                A                            D
E --------------------------------------------------------------|
B --7---------------------------8s10-8--8s12--12-10--8s10--8-7--|
G ----9-7-6h7p6------------7s9--9s11-9--9s12--12-11--9s11--9-7--|
D --------------9----7-7h9--------------------------------------|
A --------------------------------------------------------------|
E --------------------------------------------------------------|

E ----------------------|
B --8-8-8s10-8--7-8-----|
G --9-9-9s11-9--7-9-----|
D ----------------------|
A ----------------------|
E ----------------------|

Song....

Guitar part #2

           D              Bm
E ----------------------------14-12-----------|
B --12-14-14b15--14b15r14-12--------15p14-12--|
G --------------------------------------------|
D --------------------------------------------|
A --------------------------------------------|
E --------------------------------------------|

          A               D
E --------12--12-12b14r12-10--12p10----10-----|
B --12-14---------------------------12--------|
G --------------------------------------------|
D --------------------------------------------|
A --------------------------------------------|
E --------------------------------------------|

           D              Bm
E ---------------------------------------------|
B --12-14-14b15--14b15r14-12-------------------|
G ---------------------------------------------|
D ---------------------------------------------|
A ---------------------------------------------|
E ---------------------------------------------|

          A               D    G            A            D
E --------12--12-12b14r12-10-----------------------------14-12s14-12-10-|
B --12-14----------------------12-12p10-----14-14p12--------------------|
G --------------------------------------11-----------14-----------------|
D ----------------------------------------------------------------------|
A ----------------------------------------------------------------------|
E ----------------------------------------------------------------------|

E --14-12-------12--|
B --------14-12-----|
G ------------------|
D ------------------|
A ------------------|
E ------------------|

Guitar part #3
         D                    A                 G
E ---------------------------------------------------------------------|
B --10-7-7----7---------------8-7-8--7-8p7---7--12-10-12----12-10-8----|
G --11---7--6-7------7-9p7----9-7-9--------9----12-11-12--12-----------|
D ---------------7-9-------9-------------------------------------------|
A ---------------------------------------------------------------------|
E ---------------------------------------------------------------------|

         D
E ----------|
B --10-8-7--|
G --11-9-7--|
D ----------|
A ----------|
E ----------|
Suggest correction
Give kudos to tab author, rate the tab!
1 2 3 4 5
comments
print report bad tab
guest
You may want to rate the tab now too:
select rating
Please do not post tabs as comments. Select "correction" instead!