Oops, an error
Loading. Please wait.

Puukkobulevardi Tab

477 views 1 this week
no commentswrite comment
1 2 3 4 5
please rate
add to favorites
launch autoscroll
font size
0
reset
how to read this tab
guitar tuner
Tab Pro tools
  • play this tab
  • loop segment
  • change instrument
  • show fretboard
  • metronome
×
Best way to learn
"Puukkobulevardi"
Autoscroll
slow
fast
+/-
esc
set tempo
stop
Contributor
Tuning
D# G# C# F# A# D#
Kalle Ahola - Puukkobulevardi
http://www.kalleahola.net/

Tabbed by: Niklas Kumpulainen
Tuning: Eb

[Verse 1]
                                       Bbm F# C# G#
Tamara nousee bemarista puukkobulevardilla
Bbm           F#    C#     G#         Bbm F# C# G#
syksyn tuuli kourii Tamraa minihameen alta
Bbm           F#           C#         G#        Bbm F# C# G#
ja äreät vaahterat narahtelevat puukkobulevardilla
Bbm           F#    C#       G#            Bbm F# C# G#
ja vettä kun pyydän minulle kaadetaan viina


[Chorus]
F#                   G#
etsin kadonnutta säettä
C#          F#
se on piilossa
F#                    G#                       Bbm F# C# G#
se on piilossa jossain täällä puukkobulevardilla
           Bbm F# C# G#
puukkobulevardilla


[Verse 2]
Bbm G# C# F#
ja jok' ikisessä kuppilassa hesarilla
sama siniseksi tatuoitu jätkä, jonka elämästä
vittu kyllä sais kyllä kirjaa niinku silleen skrivais Melleri (aiheen antoi Haukka)
ja tulot fifti-fifti, niin kuin silleen fair play


[Chorus]
F#                   G#
etsin kadonnutta säettä
C#          F#
se on piilossa  
F#                     G#
se on piilossa jossain täällä puukkobulevardilla

[Solo 1]
4x Bbm F# C# G#


[Verse 3]
Bbm F# C# G#
Tamara tanssii karaokebaarissa korkeilla koroilla
ja Unski laulaa: "mistä löydät sä ystävän?"
on ilta ja entinen huippu maileri
on nuori lupaus taas ja nainen, jolla musta silmä,
lähtee joraamaan, onko oikea sulle hän?


[Chorus]
F#                   G#
etsin kadonnutta säettä
C#              F#
puukkobulevardilla
F#             G#                Bbm
välillä vaikka Sellan vessan seinästä

[Solo 2]
F# G#
C# F#
F# G# Bbm

duudi-lulla ruutia dulla
                                 Bbm F# C# G#
soi kehtolauluna puukkobulevardilla


[Verse 4]
Bbm F# C# G#
Tamara tanssii karaokebaarissa
isäntä maksaa tuplakossuvissyt mastercardilla
ja valomerkki tulee varoittamatta puukkobulevardilla


[Chorus]
F#                   G#
etsin kadonnutta säettä
C#           F#
tiedän se on täällä
F#           G#             Bbm
kun kaupunki nukkuu kohmeolaan
F#                   G#
ja inisevin kärryin lähtee liikkeelle
C#        F#
lehdenjakaja
F#           G#       Bbm
ja tuo vihdoinkin sanoman



Solo 1:
|-------------------------------------------|
|---6766-7-6767676766-7-9-7-6---------------|
|-8---------------------------8-6-----------|
|---------------------------------8---------|
|-----------------------------------8s6-4---|
|-----------------------------------------6-|

|----------------------------13~-13-13------|
|-----------------6~-6-6-----14~-14-14------|
|-----------1-3~--6~-6-6---------------15~--|
|-------1-3--------------8~-----------------|
|-----4-------------------------------------|
|-4-1---------------------------------------|

|------------------------16--------------------------|
|-16b18~==18r16-14-16b18----18r16-14-16s18-14--------|
|---------------------------------------------13s15--|
|----------------------------------------------------|
|----------------------------------------------------|
|----------------------------------------------------|
comments
We did not receive enough feedback on this tab! Please rate:
print report bad tab
1 2 3 4 5
I want to post or [tab]
guest
You may want to rate the tab now too:
select rating
Please do not post tabs as comments. Select "correction" instead!