Oops, an error
Loading. Please wait.

Groan Of Wind Tab

version 1
version 1

Whole song

Interactive

7,204 views 9 this week
no commentswrite comment
1 2 3 4 5
excellent!
x 4
add to favorites
launch autoscroll
font size
0
reset
how to read this tab
guitar tuner
Tab Pro tools
  • play this tab
  • loop segment
  • change instrument
  • show fretboard
  • metronome
Autoscroll
slow
fast
+/-
esc
set tempo
stop
Contributor
Difficulty
intermediate
kalmah
groan of wind

1 step down..

part I
-----------------------------------------------------------------------|
-----------------------------------------------------------------------|
-------------------------------------------------------------------/17-|
-5-9-7-5-7--10-9-7-5--9-7-5-7-5-4--5-9-7-5-7--10-9-7-5--9-7-5-7-5------|
-----------------------------------------------------------------------|
-----------------------------------------------------------------------|

part II (0:28)
-------------------------------------------------------------------------|
-------------------------------------------------------------------------|
-------------------------------------------------------------------------|
-55555555555555555555-9999-7777-5555-7777777777777777-44444444-5555-7777-|
-------------------------------------------------------------------------|
-------------------------------------------------------------------------|

--------------------------------------------------------------------------------|
--------------------------------------------------------------------------------|
--------------------------------------------------------------------------------|
-55555555555555555555-9999-7777-5555-7777777777777777-1010101010101010-44444444-|
--------------------------------------------------------------------------------|
--------------------------------------------------------------------------------|

-------------------------------------------------------------------------|
-------------------------------------------------------------------------|
-------------------------------------------------------------------------|
-55555555555555555555-9999-7777-5555-7777777777777777-44444444-5555-7777-|
-------------------------------------------------------------------------|
-------------------------------------------------------------------------|

------------------------------------------------------|
------------------------------------------------------|
------------------------------------------------------|
-55555555555555555555-9999-7777-5555-7777777777777777-|
------------------------------------------------------|
------------------------------------------------------|

part III (0:49)
------------------------------------------------------------------------|
------------8-10-8-7---------8-10-8-7---8-10-8-7-------8-10-12---7-8-10-|
-9-7-5-7--9----------9-7---9----------9----------9-7-9---------7--------|
-------------------------9----------------------------------------------|
------------------------------------------------------------------------|
------------------------------------------------------------------------|

----------------------------------------------------------------|
----8-10-8-7---------8-10-8-7---8-10-8-7-------8-10-12---7-8-10-|
--9----------9-7---9----------9----------9-7-9---------7--------|x3
-----------------9----------------------------------------------|
----------------------------------------------------------------|
----------------------------------------------------------------|

part IV (1:10)
---------7--------------------------------7----------------------|
-----7-8-----7-8-10-----7-10-8-7------7-8-----7-8-10-----8-7-----|
-9-9-------9--------7-7-----------9-9-------9--------7-7-----9-7-|
-----------------------------------------------------------------|x3
-----------------------------------------------------------------|
-----------------------------------------------------------------|

---------7--------------------------------7---------------|
-----7-8-----7-8-10-----7-10-8-7------7-8-----7-8---------|
-9-9-------9--------7-7-----------9-9-------9-----9-7-5-7-|
----------------------------------------------------------|
----------------------------------------------------------|
----------------------------------------------------------|

verse I (1:33)
-------7---------------------------------------7------------------|
---7-8-----8-----8-7-8-7-------8-7---7-----7-8-----8-----8-7-8-10-|
-9-------9---7-9---------9-7-9-----9---7-9-------9---7-9----------|
------------------------------------------------------------------|
------------------------------------------------------------------|
------------------------------------------------------------------|

-7-8-7-7-8-7------7----------------7-----------------------|
-------------10-8---10-8-7-----7-8-----8-----8-7-8-7-------|
---------------------------7-9-------9---7-9---------9-7-9-|
-----------------------------------------------------------|
-----------------------------------------------------------|
-----------------------------------------------------------|

-----------------7------------------7-8-7-7-8-7------7----------|
-8-7---7-----7-8-----8-----8-7-8-10-------------10-8---10-8-7---|
-----9---7-9-------9---7-9------------------------------------7-|
----------------------------------------------------------------|
----------------------------------------------------------------|
----------------------------------------------------------------|

---------2-----------------------------2---------------------|
-----2-3-----2-3-5-----2-5-3-2-----2-3-----2-3-5-----3-2-----|
-4-4-------4-------2-2---------4-4-------4-------2-2-----4-2-|
-------------------------------------------------------------|x2
-------------------------------------------------------------|
-------------------------------------------------------------|

Verse II (2:04)
-------7---------------------------------------7------------------|
---7-8---7/8-----8-7-8-7-------8-7---7-----7-8---7/8-----8-7-8-10-|
-9-----------7/9---------9-7-9-----9---7-9-----------7-9----------|
------------------------------------------------------------------|
------------------------------------------------------------------|
------------------------------------------------------------------|

-7-8-7-7-8-7------7-------------------------------------------------------------------|
-------------10-8---10-8-7------------------------------------------------------------|
---------------------------7------------------------------------------------4---------|
--------------------------------5-7-5-4---------5-7-5-4---5-7-5-4-------5-7-----4-5-7-|
------------------------------7---------7-5---7---------7---------7-5-7-------5-------|
--------------------------------------------7-----------------------------------------|

-----------------------------------------------------------|
-----------------------------------------------------------|
-----------------------------------------------4-----------|
---5-7-5-4---------5-7-5-4---5-7-5-4-------5-7-----4-5-7---|x2
-7---------7-5---7---------7---------7-5-7-------5-------7-|
---------------7-------------------------------------------|

keep it metal..
comments
print report bad tab
I want to post or [tab]
guest
You may want to rate the tab now too:
select rating
Please do not post tabs as comments. Select "correction" instead!