Oops, an error
Loading. Please wait.

Svieri Doroga Tab

version 1
version 1

Whole song

Interactive

1,971 views 3 this week
no commentswrite comment
1 2 3 4 5
please rate
add to favorites
launch autoscroll
font size
0
reset
how to read this tab
guitar tuner
Autoscroll
slow
fast
+/-
esc
set tempo
stop
Help us to improve Ultimate-Guitar.com Take our survey!
×
Fingerpick these.

Gtr I (75% to the left)
Gtr II (75% to the right)
Gtr III (Centered and quiet; I'm not gonna waste my time trying to figure that part out)

By the way, U.C. means "unknown chord".

Gtr I (Intro)

  Esus    Am      Esus               G               U.C.     G
  E E E E E E E E E E E E E E Q (s)  E E E E E E E E E E E E E E E E
d|----------------------------------|--------------------------------|
A|------0-------1-------0-----------|----0-------0---------------0---|
F|----2-------2-------2-------2-----|--------------------2-----------|
C|--2-------2-------2-------2---(2)-|--0---0---0---0-----------0---0-|
G|0-------0-------0-------0---------|--------2---------3---3---------|
D|----------------------------------|3---------------1-------3-------|

Gtr II
d|----------------------------------|--------------------------------|
A|----------------------------------|--------------------------------|
F|----------------------------------|--------------------------------|
C|----------------------------------|--------------------------------|
G|----------------------------------|--------------------------------|
D|----------------------------------|--------------------------------|


After intro...

Gtr I
  Esus    Am      Esus               G               U.C     G
  s s s s s s s s s s s s s s Q (s)  s s s s s s s s s s s s s s s s
d|----------------------------------|--------------------------------|
A|------0-------1-------0-----------|----0-------0---------------0---|
F|----2-------2-------2-------2-----|--------------------2-----------|
C|--2-------2-------2-------2---(2)-|--0---0---0---0-----------0---0-|
G|0-------0-------0-------0---------|--------2---------3---3---------|
D|----------------------------------|3---------------1-------3-------|

Gtr II (the slides could be changed with hammer-ons and pull-offs)
  
e|3/5~~~~~~~~~~~~~7\6---------------|--------5h6-5h6-5h6-5h6-5-6-8-6-|
B|----------------------------------|--------------------------------|
G|----------------------------------|--------------------------------|
D|----------------------------------|--------------------------------|
A|----------------------------------|--------------------------------|
E|----------------------------------|--------------------------------|

Do the "after intro" part a total of 2 times, then proceed to the next part.

Gtr I (i'll figure this part out later)


d|----------------------------------|----------------------------------|
A|----------------------------------|----------------------------------|
F|----------------------------------|----------------------------------|
C|----------------------------------|----------------------------------|
G|----------------------------------|----------------------------------|
D|----------------------------------|----------------------------------|

Gtr II
  Q   E E E     Q   Q   E E E E E E  Q   E E E     Q   Q   E E E E E E
d|----------------------------------|----------------------------------|
A|----0---------3---5---------------|----0---------3---5---------------|
F|2-----2-2-------------5-4-5-4-2-2-|2-----2-2-------------5-4-5-4-5-5-|
C|----------------------------------|----------------------------------|
G|----------------------------------|----------------------------------|
D|----------------------------------|----------------------------------|
 This part above this text is played twice.

After that, guitar I should play the intro once, and on the second time, this slight variation...

e|----------------------------------|--------------------0-0-----------|
B|------0-------1-------0-----------|----0-------0---0-0-1-0---0-1-0---|
G|----2-------2-------2-------2-----|--------------------2-2---------2-|
D|--2-------2-------2-------2---(2)-|--0---0---0---0-----x-x-----------|
A|0-------0-------0-------0---------|--------2-------------------------|
E|----------------------------------|3---------------------------------|




| /  slide up
| \  slide down
| h  hammer-on
| p  pull-off
| ~  vibrato
| +  harmonic
| x  Mute note
===============================================================================
Suggest correction
Give kudos to tab author, rate the tab!
1 2 3 4 5
comments
print report bad tab
guest
You may want to rate the tab now too:
select rating
Please do not post tabs as comments. Select "correction" instead!