Oops, an error
Loading. Please wait.

Un Destino tab

20 views 3 this week
no commentswrite comment
1 2 3 4 5
3 more votes to show rating
add to favorites
×
Save as Personal and add changes to this tab that will be seen only by you. Learn more ›
×
You can save this tab as Personal to edit and correct it or add notes. All changes will be seen only by you. Learn more »
launch autoscroll
font size
0
reset
how to read this tab
guitar tuner
edit
Autoscroll
slow
fast
+/-
esc
set tempo
stop
Intro:

E:-----9^11-11^9---7-9^11-11^9-----9^11-9--7-9^11----|
B:-7-9-----------9-------------7^9-------------------|
G:---------------------------------------------------|
D:---------------------------------------------------|
A:---------------------------------------------------|
E:---------------------------------------------------|

           G#m                          F#
En vez de estar a la altura de esta confusion,
 G#m             F#
hablas de mi destino,
 G#m                  F#
que ejemplo estas dando?
 C#m             F#
adonde estas mirando?          X2

                 G#m
y no me hables de realismo,
F#                       G#m F#
si ves lo que tu quieres,
G#m                   F#              C#m
finanzas truchas, siliconas y boludismo,
                  F#
mientras la vida muere.

           G#m                 F#
Reina la muerte, agoniza la virtud,
           G#m                    F#
ya no me engañas, no me representas tu,
           G#m               F#
tu prepotencia no apagara mi luz,
           C#m                  F#
esto es lo mio, esto no me lo das tu.

              G#m                          F#
Nuestra evolution se hace fuerte y sigue andando,
        G#m                      F#
comprometidos nuestras vidas comandando,
                 G#m                      F#
Vé a hacer tus deberes y no me estes molestando,
              C#m                  F#
con tus satelites mirando, no nos estes controlando

Solo: G#m - F# X3
      C#m - F#

E:9^11-9^11-16-14-9^11-9^11--9^11--9^11-9^11-16-14-9^11-9^11-14-9^11^9-|
B:-------------------------9-----9-------------------------------------|
G:---------------------------------------------------------------------|
D:---------------------------------------------------------------------|
A:---------------------------------------------------------------------|
E:---------------------------------------------------------------------|

En vez de estar a la altura de esta confucion,
hablas de mi destino,
que ejemplo estas dando?
adonde estas mirando?          XZ

Solo: G#m - F# X3
      C#m - F#

E:---9-11---9----|
B:-9------9---9--|
G:---------------|
D:---------------|
A:---------------|
E:---------------|

                G#m
Veras como el consumismo,
  F#                 G#m F#
ya no nos entretiene,
   G#m              F#           C#m
la narcocracia, la ira y el egoismo
                   F#
no infectara a mis fieles,

             G#m                  F#
tu boca de mentira me habla de la salud,
             G#m                     F#
y vives paranoico en tu cabeza de ataud,
            G#m                       F#
sembrando sizaña quieres matar la virtud,
            C#m                        F#
pero la verdad crecera en cualquier latitud.

            G#m                            F#
Aunque me extorciones con el pan que me estas dando,
            G#m                            F#
hay una espiga interior que me esta alimentando,
             G#m                       F#
desafias a todos, no se a que estas jugando,
             C#m                           F#
hacia el gobierno de los elemoentos nos estas empujando

Solo: G#m - F# X3
      C#m - F#

En vez de estar a la altura de esta confucion,
hablas de mi destino,
que ejemplo estas dando?
adonde estas mirando?          XZ

Solo: G#m - F# X3
      C#m - F#
E:-9797-9797--997---2-4-----2-----4-4-2-9797--9797--2-4-7-4-7-4-9^11-9--|
B:----------------4-----2-4---2-4------------------4---------------------|
G:-----------------------------------------------------------------------|
D:-----------------------------------------------------------------------|
A:-----------------------------------------------------------------------|
E:-----------------------------------------------------------------------|

           G#m                   F#
Reina la muerte, agoniza la virtud,
            G#m                   F#
ya no me engañas, no me representas tu,
         G#m                 F#
tu prepotencia no apagara mi luz,
           C#m                   F#
esto es lo mio, esto no me lo das tu.

           G#m                          F#
Nuestra evolution se hace fuerte y sigue andando,
          G#m                   F#
comprometidos nuestras vidas comandando,
                 G#m                   F#
Vé a hacer tus deberes y no me estes molestando,
            C#m                       F#         C#m  F#
con tus satelites mirando, no nos estes controlando


E:-----9^11-11^9--11-9-7-9--|
B:-7^9----------------------|
G:--------------------------|
D:--------------------------|
A:--------------------------|
E:--------------------------|

            
            
Suggest correction
Creating personal tab
Creating personal tab
You can edit any tab online and save it as your Personal.

You can edit, replace or remove any tab part or add personal notes – all changes will be seen only by you.

Personal tabs can be accessed anytime from any device, even offline.
Learn more »
Give kudos to tab author, rate the tab!
1 2 3 4 5
comments
print report bad tab
guest
Wanna post a correction for this tab? Suggest correction