Oops, an error
Loading. Please wait.

The Shadow Of Uther tab

version 2
version 2

Whole song

Interactive

by Kamelot
1,399 views 3 this week
2 commentsread comments
1 2 3 4 5
x 4
add to favorites
×
Save as Personal and add changes to this tab that will be seen only by you. Learn more ›
×
You can save this tab as Personal to edit and correct it or add notes. All changes will be seen only by you. Learn more »
launch autoscroll
font size
0
reset
how to read this tab
guitar tuner
edit
Autoscroll
slow
fast
+/-
esc
set tempo
stop
Author
Difficulty
The Shadow of Uther
Kamelot
Track number 6 from The Fourth Legacy (2000)
Tabbed By: Mariano Arnaiz
Anything to : marianoarnaiz@hotmail.com
Tunning: 1/2 step down (EbAbDbGbBbeb)

Intro
eb||--------------------------------------------------------||
Bb||--------------------------------------------------------||
Gb||------------/4-----------/5-----------------------------||
Db||--------------------------------------------------------||
Ab||--0--0-0-0------0--0-0-0-----0--0-0-0--3-3--2-2--0-0-0--||
Eb||--------------------------------------------------------||

eb||----------------------------------------------------||  
Bb||---------------------------------------/5-3-6-5-0---||  
Gb||------------/4-----------/5---------------------4v--|| 
Db||----------------------------------------------------||
Ab||--0--0-0-0------0--0-0-0-----0--0-0-0---------------||
Eb||----------------------------------------------------||

eb||---------------------------------------------------------------||  
Bb||---------------------------------------/5-3-6-5----------------||  
Gb||------------/4-----------/5---------------------5p4h5-5p4p2-0--|| 
Db||---------------------------------------------------------------||
Ab||--0--0-0-0------0--0-0-0-----0--0-0-0--------------------------||
Eb||---------------------------------------------------------------||

eb||---------------------------------------------------------------||
Bb||------------------------------------------------------------0--||
Gb||--------------------------------------------------/9-7-10-7-4--||
Db||--------0h2h5--/9--------0h2h5--/10--------0h2h5---------------||
Ab||--0h2h3------------0h2h3-------------0h2h3---------------------||
Eb||---------------------------------------------------------------||

eb||------------------------------------------------------------------------------||
Bb||---------------------------------------------------------------------------0--||
Gb||--------------------------------------------------/9-7-10-7-10p9h10-10p9p7-4--||
Db||--------0h2h5--/9--------0h2h5--/10--------0h2h5------------------------------||
Ab||--0h2h3------------0h2h3-------------0h2h3------------------------------------||
Eb||------------------------------------------------------------------------------||


Verse 1
eb||------------------|------------------|------------------|-------------------||
Bb||------------------|------------------|------------------|-------------------||
Gb||------------------|------------------|------------------|-------------------||
Db||------------------|------------------|------------------|-------------------||
Ab||--00000000000000--|--33333333333333--|------------------|-------------------||
Eb||------------------|------------------|--33333333333333--|--5555555\1111111--||
    due to the legend a new king will come rise in the morning hori......zon

eb||------------------|------------------|------------------|-------------------||
Bb||------------------|------------------|------------------|-------------------||
Gb||------------------|------------------|------------------|-------------------||
Db||------------------|------------------|------------------|-------------------||
Ab||--00000000000000--|--33333333333333--|------------------|--5555555\3333333--||
Eb||------------------|------------------|--33333333333333--|-------------------||
   brave and believing for wars to be won born with..heart of a li.........on

eb||------------------|------------------|------------------|-------------------||
Bb||------------------|------------------|------------------|------FOLLOW THE---||
Gb||------------------|------------------|------------------|-------VOICE-------||
Db||------------------|------------------|------------------|-------------------||
Ab||--00000000000000--|--33333333333333--|------------------|--2--3-5.5/7.()0.--||
Eb||------------------|------------------|--33333333333333--|-------------------||
   he will fight for a country unite       till the last drop..confines the oath


Pre-Chorus

eb||------------------------------------------||
Bb||------------------------------------------||
Gb||------------------------------------------||
Db||--------0h2h5--/9--------0h2h5--/10--9-7--||
Ab||--0h2h3------------0h2h3------------------||
Eb||------------------------------------------||

eb||--------------|---------------------------||
Bb||--------------|---------------------------||
Gb||--------------|---------------------------||
Db||--------------|---------------------------||
Ab||--3333333333--|--5555555---3---5---3---0--||
Eb||--------------|---------------------------||
    till all will respect him wherever he roams

Chorus
A5          C5
deep in the woods
       D5          C5
he can hear she's alive
A5           C5
lost in the dark
     D5         C5
of a dragons lament
A5            C5 
searching the highlands
   D5        C5
in trying to find
A5          C5
trace of Morgana
    D5        C5
the Princess of Hate


Pre-verse
eb||---------------------------------------------------------------||
Bb||------------------------------------------------------------0--||
Gb||--------------------------------------------------/9-7-10-7-4--||
Db||--------0h2h5--/9--------0h2h5--/10--------0h2h5---------------||
Ab||--0h2h3------------0h2h3-------------0h2h3---------------------||
Eb||---------------------------------------------------------------||

eb||------------------------------------------------------------------------------||
Bb||---------------------------------------------------------------------------0--||
Gb||--------------------------------------------------/9-7-10-7-10p9h10-10p9p7-4--||
Db||--------0h2h5--/9--------0h2h5--/10--------0h2h5------------------------------||
Ab||--0h2h3------------0h2h3-------------0h2h3------------------------------------||
Eb||------------------------------------------------------------------------------||


Verse 2
eb||------------------|------------------|------------------|-------------------||
Bb||------------------|------------------|------------------|-------------------||
Gb||------------------|------------------|------------------|-------------------||
Db||------------------|------------------|------------------|-------------------||
Ab||--00000000000000--|--33333333333333--|------------------|-------------------||
Eb||------------------|------------------|--33333333333333--|--5555555\1111111--||
    he will be holding the sword...stone knights .......will    join    him

eb||------------------|------------------|------------------|-------------------||
Bb||------------------|------------------|------------------|-------------------||
Gb||------------------|------------------|------------------|-------------------||
Db||------------------|------------------|------------------|-------------------||
Ab||--00000000000000--|--33333333333333--|------------------|--5555555\3333333--||
Eb||------------------|------------------|--33333333333333--|-------------------||
    bring back...honor of Pendragons name from ..cauldron is   boi........ling

eb||------------------|------------------|------------------|-------------------||
Bb||------------------|------------------|------------------|------FOLLOW THE---||
Gb||------------------|------------------|------------------|-------VOICE-------||
Db||------------------|------------------|------------------|-------------------||
Ab||--00000000000000--|--33333333333333--|------------------|--2--3-5.5/7.()0.--||
Eb||------------------|------------------|--33333333333333--|-------------------||
   but the shadow of ...Uther restrains    all the efforts to reunite the realm


Pre-Chorus
eb||------------------------------------------||
Bb||------------------------------------------||
Gb||------------------------------------------||
Db||--------0h2h5--/9--------0h2h5--/10--9-7--||
Ab||--0h2h3------------0h2h3------------------||
Eb||------------------------------------------||

eb||--------------|---------------------------||
Bb||--------------|---------------------------||
Gb||--------------|---------------------------||
Db||--------------|---------------------------||
Ab||--3333333333--|--5555555---3---5---3---0--||
Eb||--------------|---------------------------||
   a witch of his own blood from heaven expelled

Chorus
A5          C5
deep in the woods
       D5          C5
there are prints in the sand
A5        C5
leading towards
       D5         C5
where the angels repent
A5          C5
king of the ocean
D5          C5
king of the land
A5          C5
nothing can save him
     D5         C5
from Merlin's consent


Pre-solo
eb||------------------------------12-10h12p10------10-----------------------||
Bb||----------------/10-13-13-13---------------13------13-12-10-12-13-------||
Gb||--/9-12-12-12------------------------------------------------------10---||
Db||------------------------------------------------------------------------||
Ab||------------------------------------------------------------------------||
Eb||------------------------------------------------------------------------||

eb||------------------------13--12-10h12p10------10-------------||
Bb||-------------/10-12-13-------------------13------13-12-10v--||
Gb||-/9-12-12-12------------------------------------------------||
Db||------------------------------------------------------------||
Ab||------------------------------------------------------------||
Eb||------------------------------------------------------------||

Guitar Solo
Solo
e|| 	                    BAD NEWS!!!!!!          		||
B||								||
G||			  I GOT NO IDEA WHAT TO PLAY		||
D||			 IS TOO WEIRD TO FIGURE IT OUT		||
A||		        	    SORRY 			||
E||JUST IMPROVICE OVER THE SACALES OF THE INTRO AND THE PRE-SOLO||

Interlude
eb||---------------------------------------------------------------||  
Bb||---------------------------------------/5-3-6-5----------------||  
Gb||------------/4-----------/5---------------------5p4h5-5p4p2-0--|| 
Db||---------------------------------------------------------------||
Ab||--0--0-0-0------0--0-0-0-----0--0-0-0--------------------------||
Eb||---------------------------------------------------------------||

eb||------------------------------------------------------------------------------||
Bb||---------------------------------------------------------------------------0--||
Gb||--------------------------------------------------/9-7-10-7-10p9h10-10p9p7-4--||
Db||--------0h2h5--/9--------0h2h5--/10--------0h2h5------------------------------||
Ab||--0h2h3------------0h2h3-------------0h2h3------------------------------------||
Eb||------------------------------------------------------------------------------||


Bridge
eb||-------------------------------------------------------||  
Bb||-------------------------------------------------------||  
Gb||-------------------------------------------------------|| x2
Db||------------------------------------------/2-0-3-2-----||
Ab||--0--0-0-0--/2---0--0-0-0--/3---0--0-0-0-----------2v--||
Eb||-------------------------------------------------------||
    coming of storms battles of war nights of thunder are fearless
    thus goes the legend the tale I was told now we await his appearance

eb||------------------|------------------|------------------|-------------------||
Bb||------------------|------------------|------------------|------FOLLOW THE---||
Gb||------------------|------------------|------------------|-------VOICE-------||
Db||------------------|------------------|------------------|-------------------||
Ab||--00000000000000--|--33333333333333--|------------------|--2--3-5.5/7.()0.--||
Eb||------------------|------------------|--33333333333333--|-------------------||
   but the shadow of    Uther remains     there is no way the king can break the oath

Pre-Chorus
eb||------------------------------------------||
Bb||------------------------------------------||
Gb||------------------------------------------||
Db||--------0h2h5--/9--------0h2h5--/10--9-7--||
Ab||--0h2h3------------0h2h3------------------||
Eb||------------------------------------------||

eb||--------------|---------------------------||
Bb||--------------|---------------------------||
Gb||--------------|---------------------------||
Db||--------------|---------------------------||
Ab||--3333333333--|--5555555---3---5---3---0--||
Eb||--------------|---------------------------||
     the shadow will follow wherever he roams

Chorus
A5          C5
deep in the woods
       D5          C5
there are prints in the sand
A5        C5
leading towards
       D5         C5
where the angels repent
A5          C5
king of the ocean
D5          C5
king of the land
A5          C5
nothing can save him
     D5         C5
from Merlin's consent


Outro
 -                                                                                  -
|   eb||------------------------------12-10h12p10------10-----------------------||   |
|   Bb||----------------/10-13-13-13---------------13------13-12-10-12-13-------||   |
|   Gb||--/9-12-12-12------------------------------------------------------10---||   |
|   Db||------------------------------------------------------------------------||   |
|   Ab||------------------------------------------------------------------------||   |
|0  Eb||------------------------------------------------------------------------||  0|
|                                                                                    | x6... Then the flute keeps
|0  eb||------------------------13--12-10h12p10------10-------------||              0|       on playing the same fading out
|   Bb||-------------/10-12-13-------------------13------13-12-10v--||               |       untol the song ends
|   Gb||-/9-12-12-12------------------------------------------------||               |
|   Db||------------------------------------------------------------||               |
|   Ab||------------------------------------------------------------||               |
|   Eb||------------------------------------------------------------||               |
 -                                                                                  -


CHORDS
     A5     C5     D5
eb||-------------------||
Bb||-------------------||
Gb||---2-----5-----7---||
Db||---2-----5-----7---||
Ab||---0-----3-----5---||
Eb||-------------------||

Full Lyrics

6. The Shadow Of Uther

due to the legend
a new king will come
rise in the morning horizon
brave and believing
for wars to be won
born with the heart of a lion
he will fight for a country unite
till the last drop of blood confines the oath
till all will respect him wherever he roams

deep in the woods
he can hear she's alive
lost in the dark
of a dragons lament
searching the highlands
in trying to find
trace of Morgana
the Princess of Hate

he will be holding
the sword in the stone
knights of the kingdom will join him
bring back the honor
of Pendragons name
from where the cauldron is boiling

but the shadow of Uther restrains
all the efforts to reunite the realm
a witch of his own blood from heaven expelled

deep in the woods
there are prints in the sand
leading towards
where the angels repent
king of the ocean
king of the land
nothing can save him
from Merlin's consent

coming of storms
battles of war
knights of thunder are fearless
thus goes the legend
the tale I was told
now we await his appearance
but the shadow of Uther remains
there is no way the king can break the oath
the shadow will follow wherever he roams



            
            
Suggest correction
Creating personal tab
Creating personal tab
You can edit any tab online and save it as your Personal.

You can edit, replace or remove any tab part or add personal notes – all changes will be seen only by you.

Personal tabs can be accessed anytime from any device, even offline.
Learn more »
comments
print report bad tab
2 comments total.
0 reply
dani666v 73 Dec 25, 2013 11:48 AM

nice work man

0 reply
dani666v 73 Dec 25, 2013 01:54 PM

if you make guitar pro file will be amazing :X

guest
You may want to rate the tab now too:
select rating
Wanna post a correction for this tab? Suggest correction