Oops, an error
Loading. Please wait.

Halik tab

version 11
version 11
399 views 3 this week
no commentswrite comment
1 2 3 4 5
3 more votes to show rating
add to favorites
×
Save as Personal and add changes to this tab that will be seen only by you. Learn more ›
×
You can save this tab as Personal to edit and correct it or add notes. All changes will be seen only by you. Learn more »
launch autoscroll
font size
0
reset
how to read this tab
guitar tuner
edit
Autoscroll
slow
fast
+/-
esc
set tempo
stop
Author
Difficulty
Hi Guys!! Sana magustuhan niyo tong tab na ginawa ko para sa inyo.Favorite ko kasi itong Band na ito.
First time ko lang po gumawa ng tab.Kinapa ko lang po ito.:)HOPE YOU LIKE IT!:)


Guitar 1(Intro)
e------------------------------------------|
b------------------------------------------|
g-4444~-44444444~44444444~-4444~--4/6/8\6--|
d-4444~-44444444~44444444~-4444~--4/6/8\6--|
A-2222~-22222222~22222222~-2222~--2/4/6\4--|
E------------------------------------------|

Guitar 1
e---------------------------------------------------------------------------------------------|
b---------------------------------------------------------------------------------------------|
g---11-11-11-9-8-6-8~--11-11--11-11-11/13-11-9-8-6-11-11-11-9-8-6-8-6--11/13-13-9-8-8h9-------|
d--9------------------9------9--------------------9-------------------9-----------------9-11~-|
A---------------------------------------------------------------------------------------------|
E---------------------------------------------------------------------------------------------|

Guitar 2
e----------------------------|          |----|
b----------------------------|          |----|
g----------------------------|          |----|
d-2-44-----------2-44--------|do it 2x  |-2~-|
A-2-22-44-6666---2-22-444444-|          |-2~-|
E-0-xx-22-4444---0-xx-222222-|          |-0~-|

Guitar 1(Buong verse ganito yung gagawin.)para malaman yung timming pakinggan niyo yung song.)
e---------------------------------------|
b---------------------------------------|
g---------------------------------------|
d-----5---5-------5----5--------4----4--|
A---2---2------5----5--------2----2-----|
E-0--------2-------------4--------------|

Guitar 2
e--------------------------------------------------|
b--------------------------------------------------|
g-----11--11-----11--11-----11---11-------11----11-|do it 2x
d-9-9---9----9-9---9-------------------------------|
A-----------------------9-9----9----11-11----11----|
E--------------------------------------------------|

e-------------------------------------------------------------|
b-------------------------------------------------------------|
g-11--11--11--11--11--11--11--11---9--9--9--9---8---8---6--8--|
d---11--11--11--11--11--11--11--11---9--9--9--9---9---9-------|
A-------------------------------------------------------------|
E-------------------------------------------------------------|

e---------------------------------------------------------------|
b---------------------------------------------------------------|
g-11--11--11--11--11--11--11--11--9--9--9--9--8--8----6--8--11~-|
d---11--11--11--11--11--11--11--11--9--9--9--9--9--9------------|
A---------------------------------------------------------------|
E---------------------------------------------------------------|

Chorus(Guitar 1)
e---------|
b---------|
g-4/6/8\6-|
d-4/6/8\6-|
A-2/4/6\4-|
E---------|

Chorus(Both Guitar 1 and 2.)
e-------------------------------|        |-~------|
b-------------------------------|        |-~------|
g-------------------------------|do it 2x|-~------|
d-2-44------------2-44----------|        |-2~-----|
A-2-22-44-666666--2-22-4444444--|        |-2~-----|
E-0-xx-22-444444--0-xx-2222222--|        |-0~-----|

Guitar 1. 2nd verse.
e---------------------------------------|
b---------------------------------------|
g---------------------------------------|
d-----5---5-------5----5--------4----4--|
A---2---2------5----5--------2----2-----|
E-0--------2-------------4--------------|

Guitar 2
e--------------------------------------------------|
b--------------------------------------------------|
g-----11--11-----11--11-----11---11-------11----11-|do it 2x
d-9-9---9----9-9---9-------------------------------|
A-----------------------9-9----9----11-11----11----|
E--------------------------------------------------|

e-------------------------------------------------------------|
b-------------------------------------------------------------|
g-11--11--11--11--11--11--11--11---9--9--9--9---8---8---6--8--|
d---11--11--11--11--11--11--11--11---9--9--9--9---9---9-------|
A-------------------------------------------------------------|
E-------------------------------------------------------------|

e---------------------------------------------------------------|
b---------------------------------------------------------------|
g-11--11--11--11--11--11--11--11--9--9--9--9--8--8----6--8--11~-|
d---11--11--11--11--11--11--11--11--9--9--9--9--9--9------------|
A---------------------------------------------------------------|
E---------------------------------------------------------------|


Chorus(Guitar 1)
e---------|
b---------|
g-4/6/8\6-|
d-4/6/8\6-|
A-2/4/6\4-|
E---------|



Chorus(Both Guitar 1 and 2.)
e-------------------------------|        |-~------|
b-------------------------------|        |-~------|
g-------------------------------|do it 2x|-~------|
d-2-44------------2-44----------|        |-2~-----|
A-2-22-44-666666--2-22-4444444--|        |-2~-----|
E-0-xx-22-444444--0-xx-2222222--|        |-0~-----|

ADLIB
Guitar 1
e|----------|
B|-77777777-|
G|----------|
D|-44444444-|
A|----------|
E|----------|

Guitar 1 .Uulitin ulit.
e|----------------------------------------------|
B|-7777777777777777-5555555555555555------------|
G|----------------------------------------------|
D|-4444444444444444-2222222222222222------------|
A|----------------------------------------------|
E|-----------------------------------*pickslide-|

e|---------------------------------------------------------------------------|
B|---------------------------------------------------------------------------|
G|-14-14-14-14-14-14-14-14-11-11-11-11-9-9-9-9-8-8-8-8-9-9-9-9-8-6-444444444-|
D|---------------------------------------------------------------------------|
A|-11-11-11-11-11-11-11-11-9--9--9--9--7-7-7-7-6-6-6-6-7-7-7-7-6-4-222222222-|
E|---------------------------------------------------------------------------|

Guitar 2
e|------------------------------------|
B|------------------------------------|
G|-------------------9999999999999999-| do it 2x
D|-66666666-99999999-9999999999999999-|
A|-66666666-99999999-7777777777777777-|
E|-44444444-77777777------------------|

FINAL CHORUS
Guitar 1

e|---------|
B|---------|
G|-6/8-6\4-|
D|---------|
A|-4/6-4\2-|
E|---------|

Both Guitar 1 and 2
e|-------------------------------------|
B|-------------------------------------|
G|----4-4----------------4-4-----------|
D|-2--4-4--4-4--6-66--2--4-4---4444444-| do it 2x
A|-2--2-2--4-4--6-66--2--2-2---4444444-|
E|-0-------2-2--4-44--0--------2222222-|

Tapos sasabayan na yung lyrics na "Ngayon ko lang natutunan."

Guitar 1(Sabayan niyo rin po ng fellings.)
e---------------------------------------------------------------------------------------------|
b---------------------------------------------------------------------------------------------|
g---11-11-11-9-8-6-8~--11-11--11-11-11/13-11-9-8-6-11-11-11-9-8-6-8-6--11/13-13-9-8-8h9-------|
d--9------------------9------9--------------------9-------------------9-----------------9-11~-|
A---------------------------------------------------------------------------------------------|
E---------------------------------------------------------------------------------------------|

Both Guitar 1 and 2
e------------------------|
b------------------------|
g------------------------|
d-2-44------2-44---------|
A-2-22-44---2-22-44~-----|
E-0-xx-22---0-xx-22~-----|

Pakinggan niyo nalang po yung kanta para masabayan yung tab at yung timming po.
Jasper D Perocho~

            
            
Suggest correction
Creating personal tab
Creating personal tab
You can edit any tab online and save it as your Personal.

You can edit, replace or remove any tab part or add personal notes – all changes will be seen only by you.

Personal tabs can be accessed anytime from any device, even offline.
Learn more »
Give kudos to tab author, rate the tab!
1 2 3 4 5
comments
print report bad tab
guest
You may want to rate the tab now too:
select rating
Wanna post a correction for this tab? Suggest correction