Oops, an error
Loading. Please wait.

Huling Sayaw bass

version 2
version 2

Whole song

Interactive

1,340 views 48 this week
no commentswrite comment
1 2 3 4 5
2 more votes to show rating
add to favorites
×
Save as Personal and add changes to this tab that will be seen only by you. Learn more ›
×
You can save this tab as Personal to edit and correct it or add notes. All changes will be seen only by you. Learn more »
launch autoscroll
font size
0
reset
guitar tuner
backing track
0:00
0:00
edit
Autoscroll
slow
fast
+/-
esc
set tempo
stop
Author
Difficulty
-------------------------------------------------------------------------------
                             Huling Sayaw - Kamikazee
-------------------------------------------------------------------------------

Tuning: Standard

Intro:

G|-----------------------------------------------------------------------------------|
D|-----------------------------------------------------------------------------------|
A|-----------------------------------------------------------------------------------| (2x)
E|---0000000-22222222--5555555555555555--99999999--1212121212121212--55555555--------|
12 = Twelfth Fret

Verse:

G|-----------------------------------------------------------------------------|
D|-----------------------------------------------------------------------------|
A|-----------------------------7--5--------------------------------------------|
E|---9---9---12-7-7--5-5--5-5-------7-5----------------------------------------|

G|-----------------------------------------------------------------------------|
D|-----------------------------------------------------------------------------|
A|-------------------9-7----------------7--5-----------------------------------|
E|---9---9---12-7-7------9-7--5-5--5-5-------7-5-------------------------------|

G|-----------------------------------------------------------------------------|
D|-----------------------------------------------------------------------------|
A|-----------------------------7--5--------------------------------------------|
E|---9---9---12-7-7--5-5--5-5-------7-5----------------------------------------|

G|-----------------------------------------------------------------------------|
D|-----------------------------------------------------------------------------|
A|-------------------9-7----------------7--5-----------------------------------|
E|---9---9---12-7-7------9-7--5-5--5-5-------7-5-------------------------------|

Chorus:

G|-----------------------------------------------------------------------------------|
D|-----------------------------------------------------------------------------------|
A|-----------------------------------------------------------------------------------| (2x)
E|---0000000-22222222--5555555555555555--99999999--1212121212121212--55555555--------|

12 = Twelfth Fret

Verse 2:

G|---------------------------------------------------------------------------|
D|---------------------------------------------------------------------------|
A|---------------------------7--5--------------------------------------------|
E|---9---9---12-7-7--55--55-------7-5----------------------------------------|

G|-----------------------------------------------------------------------------|
D|-----------------------------------------------------------------------------|
A|-------------------9-7----------------7--5-----------------------------------|
E|---9---9---12-7-7------9-7--5-5--5-5-------7-5-------------------------------|

G|-------------------------------------------------------------------------------|
D|-------------------------------------------------------------------------------|
A|-------------------------------------------------------------------------------|
E|---9-9-9--7-7-7--5~------------------------------------------------------------|

G|-----------------------------------------------------------------------------|
D|-----------------------------------------------------------------------------|
A|-------------------9-7----------------7--5-----------------------------------|
E|---9---9---12-7-7------9-7--5-5--5-5-------7-5-------------------------------|

Chorus:

G|-----------------------------------------------------------------------------------|
D|-----------------------------------------------------------------------------------|
A|-----------------------------------------------------------------------------------| (2x)
E|---0000000-22222222--5555555555555555--99999999--1212121212121212--55555555--------|
12 = Twelfth Fret

Pause

Bridge/Solo:

G|---------------------------------------------------------------------------|
D|---------------------------------------------------------------------------|
A|---------------------------------------------------------------------------| (2x)
E|----999999999999--000------------------------------------------------------|

Pause

G|---------------------------------------------------------------------------|
D|---------------------------------------------------------------------------|
A|---------------------------------------------------------------------------| (4x)
E|----999999999999--000------------------------------------------------------------|

G|---------------------------------------------------------------------------|
D|---------------------------------------------------------------------------|
A|---------------------------------------------------------------------------| (4x)
E|----9--9-9-9-9-9--000------------------------------------------------------|

(Listen to the song to get the timing)

Pause

G|----------------------9~---------------------------------------------------|
D|-------------------11~--7~-7777-7------------------------------------------|
A|---5/7~-7/9~-9/12~---------------------------------------------------------|
E|---------------------------------------------------------------------------|

Chorus:

G|-----------------------------------------------------------------------------------|
D|-----------------------------------------------------------------------------------|
A|-----------------------------------------------------------------------------------| (2x)
E|---0000000-22222222--5555555555555555--99999999--1212121212121212--55555555--------|
12 = Twelfth Fret

Outro:

G|---------------------------------------------------------------------------|
D|---------------------------------------------------------------------------|
A|---------------------------------------------------------------------------| (4x)
E|----999999999999--000------------------------------------------------------------|

| /  slide up
| \  slide down
| h  hammer-on
| p  pull-off
| ~  vibrato
| +  harmonic
| x  Mute note
===============================================================================

            
            
Suggest correction
Creating personal tab
Creating personal tab
You can edit any tab online and save it as your Personal.

You can edit, replace or remove any tab part or add personal notes – all changes will be seen only by you.

Personal tabs can be accessed anytime from any device, even offline.
Learn more »
Give kudos to tab author, rate the tab!
1 2 3 4 5
comments
print report bad tab
guest
You may want to rate the tab now too:
select rating
Wanna post a correction for this tab? Suggest correction