Oops, an error
Loading. Please wait.

Huling Sayaw tab

version 7
version 7

Whole song

Interactive

25 views 3 this week
no commentswrite comment
1 2 3 4 5
3 more votes to show rating
add to favorites
×
Save as Personal and add changes to this tab that will be seen only by you. Learn more ›
×
You can save this tab as Personal to edit and correct it or add notes. All changes will be seen only by you. Learn more »
launch autoscroll
font size
0
reset
how to read this tab
guitar tuner
backing track
0:00
0:00
edit
Autoscroll
slow
fast
+/-
esc
set tempo
stop
Video tutorial for this tab: https://youtu.be/lmWNGOFk7Ac

[Intro]
(Rhythm)
e|---------------------------------------------------------------| (x2)
B|---------------------------------------------------------------|
G|---------------------------------------------------------------|
D|---------------6---9-------------------------------------------|
A|---2---4---7---4---7---7---------------------------------------|
E|---0---2---5-----------5---------------------------------------|

(Lead)
e|---------------------------------------------------------------|
B|---9-----------------10-10-10-10-10-10-10----------------------|
G|---9-9-9-9-9-9-9-9-9-9--9--9--9--9--9--9-----------------------|
D|---------------------------------------------------------------|
A|---------------------------------------------------------------|
E|---------------------------------------------------------------|

e|---9-----------9-----------9-----------9-----------------------|
B|---10-10-10-10-10-10-10-10-10-10-10-10-10-10-10-10-------------|
G|---------------------------------------------------------------|
D|---------------------------------------------------------------|
A|---------------------------------------------------------------|
E|---------------------------------------------------------------|

e|---------------------------------------------------------------|
B|---9-9-9-9-9-9-9-9-9-10-10-10-10-10-10-10----------------------|
G|---9-9-9-9-9-9-9-9-9-9--9--9--9--9--9--9-----------------------|
D|---------------------------------------------------------------|
A|---------------------------------------------------------------|
E|---------------------------------------------------------------|

e|---------------------------------------------------------------|
B|---12-12-12-12--12-12-12-12--12-12-12-12--12-12-12-12----------|
G|---9--9--9--9---9--9--9--9---9--9--9--9---9--9--9--9-----------|
D|---------------------------------------------------------------|
A|---------------------------------------------------------------|
E|---------------------------------------------------------------|

[Verse 1]
(Lead)
e|---0---0-----------0--------------0----------------------------| (x3)
B|---0---0-------0-----0--------0-----0---0----------------------|
G|---9---9-----9---9-----9----9---9-----9------------------------|
D|---9---9-------------------------------------------------------|
A|---X---X---0--------------0------------------------------------|
E|---9---7-------------------------------------------------------|

e|---0---0-----------0--------------0----------------------------|
B|---0---0-------0-----0--------0-----0-0-0-0--------------------|
G|---9---9-----9---9-----9----9---9---9-9-9-9--------------------|
D|---9---9-------------------------------------------------------|
A|---X---X---0--------------0------------------------------------|
E|---9---7-------------------------------------------------------|

(Rhythm)
e|---0---0---0---------------------------------------------------|
B|---0---0---0---------------------------------------------------|
G|---9---9---9---------------------------------------------------|
D|---9---9---9---------------------------------------------------|
A|---X---X---0---------------------------------------------------|
E|---9---7---X---------------------------------------------------|

e|---------------------------------------------------------------| (x3)
B|---------------------------------------------------------------|
G|---------------------------------------------------------------|
D|---------------------------------------------------------------|
A|---4-4-4-4-0-0-0-0-0-0-0-0-0-0-0-0-----------------------------|
E|---------------------------------------------------------------|

e|---------------------------------------------------------------|
B|---------------------------------------------------------------|
G|---------------------------------------------------------------|
D|--------(2)----------------------------------------------------|
A|---4-4-4-0-----------------------------------------------------|
E|---------------------------------------------------------------|

(Rhythm) (OPTION 2)
e|---0---0---0---------------------------------------------------|
B|---0---0---0---------------------------------------------------|
G|---6---4---2---------------------------------------------------|
D|---6---4---2---------------------------------------------------|
A|---4---2---0---------------------------------------------------|
E|---------------------------------------------------------------|

e|---------------------------------------------------------------| (x3)
B|---------------------------------------------------------------|
G|---------------------------------------------------------------|
D|---------------------------------------------------------------|
A|---4-4-4-4-0-0-0-0-0-0-0-0-0-0-0-0-----------------------------|
E|---------------------------------------------------------------|

e|---------------------------------------------------------------|
B|---------------------------------------------------------------|
G|---------------------------------------------------------------|
D|--------(2)----------------------------------------------------|
A|---4-4-4-0-----------------------------------------------------|
E|---------------------------------------------------------------|

[Refrain]
(Lead)
e|---------------------------------------------------------------|
B|---------------------------------------------------------------|
G|-----6---6---6---6---6---8---8---------------------------------|
D|---7---7---7---7---7---7---9---9-------------------------------|
A|---------------------------------------------------------------|
E|---------------------------------------------------------------|

e|---------------------------------------------------------------|
B|-----------------------------0-0-0-0---------------------------|
G|---9---9---9---9---9---9---9-9-9-9-9---------------------------|
D|-----9---9---9---9---9---9-------------------------------------|
A|---------------------------------------------------------------|
E|---------------------------------------------------------------|

e|---------------------------------------------------------------|
B|---------------------------------------------------------------|
G|-----6---6---6---6---6---8---8---------------------------------|
D|---7---7---7---7---7---7---9---9-------------------------------|
A|---------------------------------------------------------------|
E|---------------------------------------------------------------|

e|-------------------------------12------------------------------|
B|---------------------------------------------------------------|
G|---9---9---9---9---9---9---9-----------------------------------|
D|-----9---9---9---9---9---9---9---------------------------------|
A|---------------------------------------------------------------|
E|---------------------------------------------------------------|

[Chorus 1]
(Rhythm)
e|---------------------------------------------------------------| (x2)
B|---------------------------------------------------------------|
G|---------------------------------------------------------------|
D|---------------6---9-------------------------------------------|
A|---2---4---7---4---7---7---------------------------------------|
E|---0---2---5-----------5---------------------------------------|

(Lead)
e|---------------------------------------------------------------|
B|---9-----------------10-10-10-10-10-10-10----------------------|
G|---9-9-9-9-9-9-9-9-9-9--9--9--9--9--9--9-----------------------|
D|---------------------------------------------------------------|
A|---------------------------------------------------------------|
E|---------------------------------------------------------------|

e|---9-----------9-----------9-----------9-----------------------|
B|---10-10-10-10-10-10-10-10-10-10-10-10-10-10-10-10-------------|
G|---------------------------------------------------------------|
D|---------------------------------------------------------------|
A|---------------------------------------------------------------|
E|---------------------------------------------------------------|

e|---------------------------------------------------------------|
B|---9-9-9-9-9-9-9-9-9-10-10-10-10-10-10-10----------------------|
G|---9-9-9-9-9-9-9-9-9-9--9--9--9--9--9--9-----------------------|
D|---------------------------------------------------------------|
A|---------------------------------------------------------------|
E|---------------------------------------------------------------|

e|---------------------------------------------------------------|
B|---12-12-12-12--12-12-12-12--12-12-12-12--12-12-12-12----------|
G|---9--9--9--9---9--9--9--9---9--9--9--9---9--9--9--9-----------|
D|---------------------------------------------------------------|
A|---------------------------------------------------------------|
E|---------------------------------------------------------------|

[Verse 2]
(Lead)
e|---0---0-----------0--------------0----------------------------| (x3)
B|---0---0-------0-----0--------0-----0---0----------------------|
G|---9---9-----9---9-----9----9---9-----9------------------------|
D|---9---9-------------------------------------------------------|
A|---X---X---0--------------0------------------------------------|
E|---9---7-------------------------------------------------------|

e|---0---0-----------0--------------0----------------------------|
B|---0---0-------0-----0--------0-----0-0-0-0--------------------|
G|---9---9-----9---9-----9----9---9---9-9-9-9--------------------|
D|---9---9-------------------------------------------------------|
A|---X---X---0--------------0------------------------------------|
E|---9---7-------------------------------------------------------|

[Chorus 2]
(Lead)
e|---------------------------------------------------------------|
B|---9-----------------10-10-10-10-10-10-10----------------------|
G|---9-9-9-9-9-9-9-9-9-9--9--9--9--9--9--9-----------------------|
D|---------------------------------------------------------------|
A|---------------------------------------------------------------|
E|---------------------------------------------------------------|

e|---9-----------9-----------9-----------9-----------------------|
B|---10-10-10-10-10-10-10-10-10-10-10-10-10-10-10-10-------------|
G|---------------------------------------------------------------|
D|---------------------------------------------------------------|
A|---------------------------------------------------------------|
E|---------------------------------------------------------------|

e|---------------------------------------------------------------|
B|---9-9-9-9-9-9-9-9-9-10-10-10-10-10-10-10----------------------|
G|---9-9-9-9-9-9-9-9-9-9--9--9--9--9--9--9-----------------------|
D|---------------------------------------------------------------|
A|---------------------------------------------------------------|
E|---------------------------------------------------------------|

e|---------------------------------------------------------------|
B|---12-12-12-12--12-12-12-12--12-12-12-12--12-12-12-12----------|
G|---9--9--9--9---9--9--9--9---9--9--9--9---9--9--9--9-----------|
D|---------------------------------------------------------------|
A|---------------------------------------------------------------|
E|---------------------------------------------------------------|

e|---0-16----16----16----16--------------------------------------|
B|---------------------------------------------------------------|
G|--------16----16----16----16-16-16-16-16-16-16-16-16-----------|
D|---------------------------------------------------------------|
A|---------------------------------------------------------------|
E|---------------------------------------------------------------|

e|---------------------------------------------------------------|
B|---------------------------------------------------------------|
G|---13-13-13-13-13-13-13-13-14-14-14-14-14-14-14-14-------------|
D|---------------------------------------------------------------|
A|---------------------------------------------------------------|
E|---------------------------------------------------------------|

e|---------------------------------------------------------------|
B|---------------------------------------------------------------|
G|---16-16-16-16-16-16-16-16-16-16-16-16-16-16-16-16-------------|
D|---------------------------------------------------------------|
A|---------------------------------------------------------------|
E|---------------------------------------------------------------|

e|---------------------------------------------------------------|
B|---14-14-14-14-14-14-14-14-14-14-14-14-14-14-14-14-------------|
G|---------------------------------------------------------------|
D|---------------------------------------------------------------|
A|---------------------------------------------------------------|
E|---------------------------------------------------------------|

[Interlude]
(Lead)
e|---------------------------------------------------------------| (x2)
B|---------------------------------------------------------------|
G|---------------------------------------------------------------|
D|---------------------------------------------------------------|
A|---------------------------------------------------------------|
E|---9-9-9-9-9-9-9-9-9-9-9-9-9-0-0-0-----------------------------|

e|---------------------------------------------------------------| 
B|---------------------------------------------------------------|
G|---------------------------------------------------------------|
D|---------------------------------------------------------------|
A|---11-11-11-11-11-11-11-11-11-11-11-11-11----------------------|
E|---9—-9--9--9--9--9--9--9--9--9--9--9--9--0--0--0--------------|

e|---------------------------------------------------------------| 
B|---------------------------------------------------------------|
G|---------------------------------------------------------------|
D|---------------------------------------------------------------|
A|---11-11-11-11-11-11-11-11-11-11-11-11-11---------11-----------|
E|---9—-9--9--9--9--9--9--9--9--9--9--9--9--0--0--0-9------------|

[Solo]
(Rhythm)
e|---------------------------------------------------------------| 
B|---------------------------------------------------------------|
G|---------------------------------------------------------------|
D|---13-13-13-13-13-13-13-13-13-13-13-13-13----------------------|
A|---11-11-11-11-11-11-11-11-11-11-11-11-11----------------------|
E|---9—-9--9--9--9--9--9--9--9--9--9--9--9--0--0--0--------------|

(lead)
e|---------------------------------------------------------------|
B|---------------------------------------------------------------|
G|---6-8-9--9-9-8-6-6---6-8-9--9-9-8-----------------------------|
D|-----------------------------------6---------------------------|
A|---------------------------------------------------------------|
E|---------------------------------------------------------------|

e|---------------------------------------------------------------|
B|---------------------------------------------------------------|
G|---------------------------------------------------------------|
D|---6-6-6-6/9-6/9-6/9-6/9-9-11-11-11----------------------------|
A|---------------------------------------------------------------|
E|---------------------------------------------------------------|

e|---------------------------------------------------------------|
B|--------------------12-------12----12----14-14-14--------------|
G|-----11----11----11-------11----11----11-----------------------|
D|---9----11----11-----------------------------------------------|
A|---------------------------------------------------------------|
E|---------------------------------------------------------------|

(16 rep each)
e|---------------------------------------------------------------| (2x)
B|---14-----16---------------------------------------------------|
G|---16b----18b--------------------------------------------------|
D|---------------------------------------------------------------|
A|---------------------------------------------------------------|
E|---------------------------------------------------------------|

[Bridge]
e|---------------------------------------------------------------|
B|---------------------------------------------------------------|
G|---------------------------------------------------------------|
D|---------------6---9---2---------------------------------------|
A|---2---4---7---4---7---0---------------------------------------|
E|---0---2---5---------------------------------------------------|

e|---------0---------------0---------------0---------------0-----|
B|-----------0---0-----------0---0-----------0---0-----------0---|
G|-----1-------1-------2-------2-------2-------2-------2-------2-|
D|---2---2-----------2---2-----------2---2-----------2---2-------|
A|---------------------------------0---------------0-------------|
E|-0---------------2---------------------------------------------|

e|-----------0---------------0---------------0---------------0---|
B|-------------0---0-----------0---0-----------0---0---------0---|
G|-------6-------6-------9-------9-------2-------2-------2---2---|
D|-----6---6-----------9---9-----------2---2-----------2---2-----|
A|---4---------------7---------------0---------------0-----------|
E|---------------------------------------------------------------|


************************************

| x   Dead note
| b   Bend
| /   Slide up
| \   Slide down

************************************
Suggest correction
Creating personal tab
Creating personal tab
You can edit any tab online and save it as your Personal.

You can edit, replace or remove any tab part or add personal notes – all changes will be seen only by you.

Personal tabs can be accessed anytime from any device, even offline.
Learn more »
Give kudos to tab author, rate the tab!
1 2 3 4 5
comments
print report bad tab
guest
You may want to rate the tab now too:
select rating
Wanna post a correction for this tab? Suggest correction