Oops, an error
Loading. Please wait.

Kunwari bass

589 views 6 this week
no commentswrite comment
1 2 3 4 5
3 more votes to show rating
add to favorites
×
Save as Personal and add changes to this tab that will be seen only by you. Learn more ›
×
You can save this tab as Personal to edit and correct it or add notes. All changes will be seen only by you. Learn more »
launch autoscroll
font size
0
reset
guitar tuner
edit
Autoscroll
slow
fast
+/-
esc
set tempo
stop
TRACK : KUNWARI
BAND  : KAMIKAZEE

(Kunwari tama yung tabs)
For questions and suggestions email: kheemowxd@yahoo.com

Intro : (Repeat 3x)

G|--------------------------------------------------------------------|
D|--------------------------------------------------------------------|
A|--------------------------------------------------------------------|
E|--0--11--12--0--11--12--0--11--12--0--11--12--0--11--12--0--11--12--|

G|------------|
D|------------|
A|------------|
E|--3--5--3--0|

Chorus:
G|-----------------------|
D|-----------------------|
A|--555555555---222222222|   3x
E|-----------------------|

G|----------------------|
D|----------------------|
A|-------------777777777|
E|--555555555-----------|

After the chorus :
G|------------------------------|
D|------------------------------|
A|------------------------------|  2x
E|--5--3--3--0--3--5--5--3--0--3|

Verse 1 :
G|----------------|
D|----------------|
A|----------------| 8x
E|--5--3--3--0----|

G|------------------|
D|------------------|
A|------------------| 2x
E|--5--3--3--0--3--5|

G|------------------------------|          G|------------|
D|------------------------------|          D|------------| ('til this part
A|------------------------------| 4x Then  A|------------|   ends)
E|--5--3--3--0--3--5--5--3--0--3|          E|-3-5-3-3-3-5|

Chorus:
G|-----------------------|
D|-----------------------|
A|--555555555---222222222|   3x
E|-----------------------|

G|----------------------|
D|----------------------|
A|-------------777777777|
E|--555555555-----------|

Verse 2
G|------------|
D|------------|
A|------------|     <-- add this part in the beginning of the verse2
E|--3--5--3--0|

G|----------------|
D|----------------|
A|----------------| 8x
E|--5--3--3--0----|

G|------------------|
D|------------------|
A|------------------| 2x
E|--5--3--3--0--3--5|

G|------------------------------|          G|------------|
D|------------------------------|          D|------------| ('til this part
A|------------------------------| 4x Then  A|------------|   ends)
E|--5--3--3--0--3--5--5--3--0--3|          E|-3-5-3-3-3-5|


SOLO PART :
-REPEAT INTRO

Bass Solo :
G|---------------|
D|---------------|
A|---------------|  3x 
E|--0--3--5--3--0|

Lead solo part : Repeat until "The Solo" stops
G|---------------|          G|------------------------------------| Figure it
D|---------------|          D|------------------------------------| out how
A|---------------|  3x Then A|------------------------------------| to play
E|--0--3--5--3--0|          E|--1--1-1--1--1-1--1--1--11--1--11-1-| this part


Instrumental part : (3:30) no bass played

-Repeat Chorus after the instrumental part.

OUTRO:
G|------------|          G|--------------| 
D|------------|          D|--------------|  
A|------------|  3x Then A|--------------| 
E|--3--5--3--0|          E|-1-0-1-0-1-0-1|
Suggest correction
Creating personal tab
Creating personal tab
You can edit any tab online and save it as your Personal.

You can edit, replace or remove any tab part or add personal notes – all changes will be seen only by you.

Personal tabs can be accessed anytime from any device, even offline.
Learn more »
Give kudos to tab author, rate the tab!
1 2 3 4 5
comments
print report bad tab
guest
You may want to rate the tab now too:
select rating
Wanna post a correction for this tab? Suggest correction