Oops, an error
Loading. Please wait.

Lucky solo bass

version 1
version 1

Solo

Interactive

1,046 views 1 this week
no commentswrite comment
1 2 3 4 5
3 more votes to show rating
add to favorites
×
Save as Personal and add changes to this tab that will be seen only by you. Learn more ›
×
You can save this tab as Personal to edit and correct it or add notes. All changes will be seen only by you. Learn more »
launch autoscroll
font size
0
reset
guitar tuner
edit
Autoscroll
slow
fast
+/-
esc
set tempo
stop
Song: Lucky
Artist: Kamikazee
Tabbed by:Spikekikay!!!!!!!!
1st verse:
   Early morning,  she wakes up   thereýs a knocký.on the  door
G-------------------------------------------------------------------|
D-------------------------------------------------------------------|
A--5ý(Break)--5-5-5-------------------------------------------------|
E-------------------7-7-7-7-7-7-7-7-3-3-3-3-3-3-3-3-5-5-5-5-5-5-5-5-|
   Time for make-up, perfect ...  you they.... for
G-------------------------------------------------------|
D-------------------------------------------------------|
A---5-5-5-5-5-5-5-5-------------------------------------|
E-------------------7-7-7-7-7-7-7-7-3-3-3-3-3-3-3-3-----|
Pre chorus:
   Isnýt.... lucky.... Hollywood .. girl                     (solo)
G---------------------------------------                   ----------------|
D---------------------------------------                   ----------------|
A--5-5-5-5-5-5-5-5-----------------------------            ----------------|
E-----------------7-7-7-7-7-7-7-7-3-3-3-3-3-3-3-3ý5(break) -5-3-2-0--------|

Chorus:
    She so..
G-----------------------------------------------------------------|
D-----------------------------------------------------------------|
A--5-5-5-5-5-5-5-5------------------------------------------------| play(2x)
E-----------------7-7-7-7-7-7-7-7-3-3-3-3-3-3-3-3-5-5-5-5-5-5-5-5-|

After chorus 1:
G---------------------------------------|
D---------------------------------------|
Aý4h5-5-5-5-5-5-5-5--4h5-5-5-5-5-5-5-5ý-|
E---------------------------------------|

(Play)
Repeat verse 1
Pre chorus
chorus

after chorus 2
G----------------------------|
D----------------------------|
Aý4h5-5-5-5-5-5-5-5ý(play(10-|x)
E----------------------------|

Guitar & Bass play together w/o drums:(slow part)
  Isnýt.. lucky .. hollywood  girl
G------------------------------------------|
D------------------------------------------|
A--5---------------------------------------|
E----------7--------3-----5-5-5-5-5-5-5-5--|
  Isnýt ..   lucky ...  but why .. cry
G-----------------------------------------------------------------|
D-----------------------------------------------------------------|
Aý5-5-5-5-5-5-5-5-------------------------------------------------|
E-----------------7-7-7-7-7-7-7-7-3-3-3-3-3-3-3-3-5-5-5-5-5-5-5-5-|
  If there.. one thing .. missing .. tears..
G------------------------------------------------------------------|
D------------------------------------------------------------------|
Aý5-5-5-5-5-5-5-5--------------------------------------------------|
E-----------------7-7-7-7-7-7-7-7-3-3-3-3-3-3-3-3-5-5-5-5-5-5-5-5--|

(Play)
Chorus

Interlude:
G-----------------------|
D-----------------------|
A--5ý(guitar playing)---| play (2x)
E--------------------7--|(guitar playing)ý3(guitar playing)ý5(guitar playing)

Outro:
G------------------------------------------------------------------|
D------------------------------------------------------------------|
Aý5-5-5-5-5-5-5-5--------------------------------------------------| play(3x)
E----------------7-7-7-7-7-7-7-7-3-3-3-3-3-3-3-3-5-5-5-5-5-5-5-5-5-|

End on
G---------------------|
D---------------------|
A---------------------|
E---7---(let ring)----|

ADAMýS SONG (BASS TAB)
G: -------------------------------------|
D: -------------------------------------|
A: -33333333----------00000000----------|
E: ----------11111111----------11111111-|

G: -------------------------------------|
D: -------------------------------------|
A: -33333333-55555555-00000000----------|
E: ----------------------------11111111-|

G: -------------------------------------|
D: ----------33333333-55555555-33333333-|
A: -33333333----------------------------|
E: -------------------------------------|

G: -------------------------------------|
D: ----------33333333-55555555-777-3333-|
A: -33333333----------------------------|
E: -------------------------------------|

G: ------------------------------------------------------------------|
D: ----------33333333-----------33333333-------33333333-555555557733-|
A: -33333333----------33333333-----------33333333--------------------|
E: ------------------------------------------------------------------|

G: -------------------------------------|
D: -------------------------------------|
A: -3-----------------------------------| (let ring)
E: -------------------------------------|
Guitar first
Riff 1 x 4
dont play
Riff 2 x 5
dont play
Riff 1 x 4
dont play
Riff 2 x 5
Riff 3 x 1
Riff 4 x 1
Riff 3 x 1
Riff 4 x 1
Riff 5 x 1
Riff 2 x 4
Riff 6 x 1

Whatýs my age again (BASS TAB)
intro
G---------------------------------|
D---------------------------------|
A-2-2-2-2---------4-4-4-4-6-6-6-6-| x 5
E---------2-2-2-2-----------------|

G-------------------------------------------------|
D-------------------------------------------------|
A-2-2-2-2---------4-4-4-4-4-4-4-4-2-2-2-2-2-2-2-2-|
E---------2-2-2-2---------------------------------|
Chorus
G-----------------------------|
D-----------------------------|
A---4-4-----6-6---2-2-2-2-2-2-| x 3
E-2---------------------------|

G---------------------------------------------|
D---------------------------------------------|
A---4-4-----6-6-6-6-6-6-6-6-6-4-4-4-4-4-4-4-4-|
E-2-------------------------------------------|
Verse
G---------------------------------|
D---------------------------------|
A-2-2-2-2---------4-4-4-4-6-6-6-6-| x3
E---------2-2-2-2-----------------|

G-------------------------------------------------|
D-------------------------------------------------|
A-2-2-2-2---------4-4-4-4-4-4-4-4-2-2-2-2-2-2-2-2-|
E---------2-2-2-2---------------------------------|
Chorus
G-----------------------------|
D-----------------------------|
A---4-4-----6-6---2-2-2-2-2-2-| x 3
E-2---------------------------|

G---------------------------------------------|
D---------------------------------------------|
A---4-4-----6-6-6-6-6-6-6-6-6-4-4-4-4-4-4-4-4-|
E-2-------------------------------------------|
Interlude
G-------------------------------------|
D-----8-----8-----6-----6-----4-----4-|
A-6-6---6-6---4-4---4-4---2-2---2-2---| x2
E-------------------------------------|
Chorus
G-----------------------------|
D-----------------------------|
A---4-4-----6-6---2-2-2-2-2-2-| x 3
E-2---------------------------|

G---------------------------------------------|
D---------------------------------------------|
A---4-4-----6-6-6-6-6-6-6-6-6-4-4-4-4-4-4-4-4-|
E-2-------------------------------------------|
Chorus
G-----------------------------|
D-----------------------------|
A---4-4-----6-6---2-2-2-2-2-2-| x 3
E-2---------------------------|

G---------------------------------------------|
D---------------------------------------------|
A---4-4-----6-6-6-6-6-6-6-6-6-4-4-4-4-4-4-4-4-|
E-2-------------------------------------------|

Have a Fun!
Im Dids ngapala!
Good Luck!

            
            
Suggest correction
Creating personal tab
Creating personal tab
You can edit any tab online and save it as your Personal.

You can edit, replace or remove any tab part or add personal notes – all changes will be seen only by you.

Personal tabs can be accessed anytime from any device, even offline.
Learn more »
Give kudos to tab author, rate the tab!
1 2 3 4 5
comments
print report bad tab
guest
Wanna post a correction for this tab? Suggest correction