Oops, an error
Loading. Please wait.

Maharot album bass

version 2
version 2

Album

893 views 1 this week
no commentswrite comment
1 2 3 4 5
2 more votes to show rating
add to favorites
×
Save as Personal and add changes to this tab that will be seen only by you. Learn more ›
×
You can save this tab as Personal to edit and correct it or add notes. All changes will be seen only by you. Learn more »
launch autoscroll
font size
0
reset
guitar tuner
edit
Autoscroll
slow
fast
+/-
esc
set tempo
stop
Author
-------------------------------------------------------------------------------
			         MAHAROT - Kamikazee
-------------------------------------------------------------------------------

Tabbed By: Gio Agudo
e-mail: giobassist5151@yahoo.com
Bass Tuning: Standard (GDAE)


Tracks:
01 DIRECTOR'S CUT
02 SEKSI! SEKSI!
03 MARTYR NYEBERA
04 NARDA
05 CHIKSILOG
06 SOBRANG INIT
07 AMBISYOSO
08 DISCOKWELA
09 PETIX
10 MY TENDER BEAR
11 APIR DAY
12 K.K.K.
13 NARDA (Acoustic)



-------------------------------------------------------------------------------
01 DIRECTOR'S CUT

INTRO PRT 2:
G|----------------------(4x)-|
D|---------------------------|
A|-----7~-6-4-2-0000---22222-|
E|-00----------------0-------|
   ..

VERSE 1:
G|--------------------------------(2x)-|----|
D|-------------------------------------|----|
A|-77777777--44-22-000000000-222222222-|----|
E|-------------------------------------|-0~-|

PRE-VERSE 2:
G|----------------------(2x)-|
D|---------------------------|
A|-----7~-6-4-2-0000---22222-|
E|-00----------------0-------|
   ..

VERSE 2:
G|--------------------------------(2x)-|----|
D|-------------------------------------|----|
A|-77777777--44-22-000000000-222222222-|----|
E|-------------------------------------|-0~-|

PRE-CHORUS:
G|---------------------------------------------|
D|---------------------------------------------|
A|-444444444-----------------444444444---------|
E|-----------55-555-555-555------------5-5-5-5-|
             .. ... ... ...

G|----------------------------------------|
D|----------------------------------------|
A|-444444444-----------------444444444-2~-|
E|-----------55-555-555-555---------------|

CHORUS:
G|-------------------------------(2x)-|----|
D|------------------------------------|----|
A|-999999999----------4444444-2222222-|-7~-|
E|-----------55555555-----------------|----|

G|---------------------------------------------|
D|---------------------------------------------|
A|-777777777777777777777777777777777777-----7~-|
E|---------------------------------------------|

BRIDGE:
G|------------------------------------------------------------------------|
D|------------------------------------------------------------------------|
A|--------7-7-777777----------------------777777-----------------------7~-|
E|-2/12\1------------555555-999999-77777---------555555--999999-777777----|

G|----------------------------------------|
D|----------------------------------------|
A|-444444444-----------------444444444-2~-|
E|-----------55-555-555-555---------------|

CHORUS:
G|-------------------------------(2x)-|----|
D|------------------------------------|----|
A|-999999999----------4444444-2222222-|-7~-|
E|-----------55555555-----------------|----|

G|---------|
D|------9~-|
A|------x--|
E|-777777~-|



-------------------------------------------------------------------------------
02 SEKSI! SEKSI!

INTRO PRT 1:
G|--------|-----------------------------|
D|--------|-----------------------------|
A|--------|-----------------3333-0-4444-|
E|-33-4-5-|-33-4-5--33-4-5--------------|

INTRO PRT 2:
G|-------------------------(3x)-|-------------------|
D|------------------------------|-------------------|
A|--------------5-3-5-4--2------|-22-55--444-0-5555-|
E|-00-3-4-4/5b-------------3333-|-00-33------0-3333-|
                                  .. ..

VERSE 1:
G|------------------------------9-9-9-9-|
D|--------------------------------------|
A|----------5-4-------------------------|
E|-33-4-5--------5-4---33-4-5------(2x)-|
            . .  . .            . . . .

PRE-CHORUS:
G|---------------------------|
D|---------------------------|
A|-----------------333-0-444-|
E|-33-4-5--33-4-5------------|

CHORUS:
G|-------------------------(3x)-|-------------------|
D|------------------------------|-------------------|
A|--------------5-3-5-4--2------|--------444--------|
E|-00-3-4-4/5b-------------3333-|-00-33------0-3333-|
                                  .. ..

VERSE 2:
G|------------------------------9-9-9-9-|
D|--------------------------------------|
A|----------5-4-------------------------|
E|-33-4-5--------5-4---33-4-5------(2x)-|
            . .  . .            . . . .

PRE-CHORUS:
G|---------------------------|
D|---------------------------|
A|-----------------333-0-444-|
E|-33-4-5--33-4-5------------|

CHORUS:
G|-------------------------(3x)-|-------------------|
D|------------------------------|-------------------|
A|--------------5-3-5-4--2------|--------444--------|
E|-00-3-4-4/5b-------------3333-|-00-33------0-3333-|
                                  .. ..

BRIDGE PRT 1:
G|-------------------|-------------------------|
D|-------------------|-------------------------|
A|---------------3/5-|-----------------33-5----|
E|-5--3-2-3-2--3-----|-555-333-222-333------5~-|

BIDGE PRT 2:
G|-------------------------------(4x)-|
D|------------------------------------|
A|----------------------------555-444-|
E|-0000000-333-44-55--5555555---------|

BRIDGE PRT 3:
G|--------|
D|--------|
A|--------|
E|-33-4-5-|

G|---------------------------|
D|---------------------------|
A|-----------------333-0-444-|
E|-33-4-5--33-4-5------------|

CHORUS:
G|-------------------------(3x)-|-------------------|
D|------------------------------|-------------------|
A|--------------5-3-5-4--2------|--------444--------|
E|-00-3-4-4/5b-------------3333-|-00-33------0-3333-|
                                  .. ..

OUTRO:
G|-------------------|-------------------------|
D|-------------------|-------------------------|
A|---------------3/5-|-----------------33-5----|
E|-5--3-2-3-2--3-----|-555-333-222-333------5~-|

G|----|
D|----|
A|----|
E|-5~-|



-------------------------------------------------------------------------------
03 MARTYR NYEBERA

INTRO PRT 1:
G|-----------------------------------------(2x)-|
D|----------------------------------------------|  
A|----------5-4------4/5-55--4/5-55-4/5-55--777-|
E|-5--0-xxx-----xxx-----------------------------|

INTRO PRT 2:
G|-----------------(2x)-|
D|----------------------|
A|----------5555--77777-|
E|-5555555--------------|

VERSE 1:
G|---------------------------------------------|
D|---------------------------------------------| 
A|----------5555--77777------------5555--7-7-7-|
E|-5555555----------------5555555--------------|
    ......   ...   ....    ......   ...  . . .

G|-----------------(2x)-|
D|----------------------|
A|----------5555--77777-|
E|-5555555--------------|

PRE-CHORUS:
G|-----------------|
D|-----------------|
A|--------------5~-|
E|-2~----0~--------|

CHORUS:
G|----------------------------|
D|----------------------------| 
A|--------77777--44444--55555-|
E|-55555----------------------|

G|----------------------------------------|
D|----------------------------------------| 
A|--------77777--44444--5\4-5\4-5\4-5\4-5-|
E|-55555----------------------------------|

PRE-VERSE 2:
G|-----------------------------------------(2x)-|
D|----------------------------------------------|  
A|----------5-4------4/5-55--4/5-55-4/5-55--777-|
E|-5--0-xxx-----xxx-----------------------------|

VERSE 1:
G|---------------------------------------------|
D|---------------------------------------------| 
A|----------5555--77777------------5555--7-7-7-|
E|-5555555----------------5555555--------------|
    ......   ...   ....    ......   ...  . . .

G|-----------------(2x)-|
D|----------------------|
A|----------5555--77777-|
E|-5555555--------------|

PRE-CHORUS:
G|-----------------|
D|-----------------|
A|--------------5~-|
E|-2~----0~--------|

CHORUS:
G|----------------------------|
D|----------------------------| 
A|--------77777--44444--55555-|
E|-55555----------------------|

G|----------------------------------------|
D|----------------------------------------| 
A|--------77777--44444--5\4-5\4-5\4-5\4-5-|
E|-55555----------------------------------|

BRIDGE PRT 1:
G|--------------------------------------|
D|--------------------------------------|
A|-------55555-77777--------55555-7-7-7-|
E|-55555--------------55555-------------|
                                  . . .

BRIDGE PRT 2:
G|-------------------------------------------|
D|-------------------------------------------|
A|--------55555-77777--------55555--77-55-44-|
E|--55555--------------55555-----------------|

BRIDGE PRT 3:
G|------------------------------------|
D|------------------------------------|
A|------------5555-------------5-4----|
E|--2222-0000-------2222--0000-----5~-|

BRIDGE PRT 4:
G|------|------------------------|
D|------|------------------------|
A|------|------7777--44444-55555-|
E|-12\5-|-5555-------------------|
          .... ....  ..... .....

BRIDGE PRT 5:
G|-----------------------------------------|
D|-----------------------------------------|
A|-444-222-------------------------222-----|
E|---------444-555-444-555-444-555------0~-|

G|------------------------------------|
D|------------------------------------|
A|-444-222----------------------------|
E|---------444-555-444-555-444-555-77-|

CHORUS:
G|----------------------------|
D|----------------------------| 
A|--------77777--44444--55555-|
E|-55555----------------------|

G|----------------------------------------|
D|----------------------------------------| 
A|--------77777--44444--5\4-5\4-5\4-5\4-5-|
E|-55555----------------------------------|

OUTRO:
G|-----------------------------------(2x)-|-------|
D|----------------------------------------|-------| 
A|--------77777--44444--5\4-5\4-5\4-5\4-5-|-------|
E|-55555----------------------------------|-5--5~-|
                                            .




-------------------------------------------------------------------------------
04 NARDA

INTRO PRT 2:
G|-----------------------------------(2x)-|
D|----------------------------------------|
A|-55555555-222222------------------------|
E|-----------------3333333-55555555555555-|

VERSE 1:
G|-----------------------------------(2x)-| 
D|----------------------------------------|
A|-55555555-222222------------------------|
E|-----------------3333333-55555555555555-|

PRE-CHORUS:
G|----------------------------------------| 
D|----------------------------------------|
A|-55555555-222222------------------------|
E|-----------------3333333-55555555555555-|

CHORUS:
G|----------------------------------------| 
D|----------------------------------------|
A|-55555555-222222------------------------|
E|-----------------3333333-55555555555555-|

VERSE 2:
G|-----------------------------------(2x)-| 
D|----------------------------------------|
A|-55555555-222222------------------------|
E|-----------------3333333-55555555555555-|

PRE-CHORUS:
G|----------------------------------------| 
D|----------------------------------------|
A|-55555555-222222------------------------|
E|-----------------3333333-55555555555555-|

CHORUS:
G|----------------------------------------| 
D|----------------------------------------|
A|-55555555-222222------------------------|
E|-----------------3333333-55555555555555-|

DARATING KAYA:
G|----------------------------| 
D|----------------------------|
A|-55555555-222222------------|
E|-----------------3333333-5~-|

PRE-CHORUS:
G|----------------------------------------| 
D|----------------------------------------|
A|-55555555-222222------------------------|
E|-----------------3333333-55555555555555-|

CHORUS:
G|----------------------------------------|----| 
D|----------------------------------------|----|
A|-55555555-222222------------------------|-5~-|
E|-----------------3333333-55555555555555-|----|



-------------------------------------------------------------------------------
05 CHIKSILOG

INTRO PRT 2:
G|-----------------------------------------------------------------------------|
D|-----------------------------------------------------------------------------|
A|-777----44-------77---------------77----44-------77--------------------------|
E|-----55----777------55-77777777------55----777------55-77xxx77xxx77x77x77x77-|
                                                        ..   ..   .. .. .. ..

VERSE 1:
G|-----------(4x)-|
D|----------------|
A|-777---444------|
E|-------------55-| 
               ..

PRE-CHORUS:
G|--------------------------------(2x)-|
D|-------------------------------------|
A|------------------------------777777-|
E|-555555--777777--9-9-9-9-9-9---------| 
   .. ..   .. ..   . .   . .   

CHORUS:
G|-----------------------------------|
D|-----------------------------------|
A|---------4444---------------4444---|
E|-555-55-------7777---555-55------7-|
       ..                          .

G|---------------------------------------------------------------|
D|---------------------------------------------------------------|
A|-777----44-------77---------------77----44------77-------------|
E|-----55----777------55-77777777------55----777-----55-77777b\2-|

BRIDGE PRT 1:
G|--------------------------------------------------------------------------------| 
D|--------------------------------------------------------------------------------|
A|-666/777777777-44444444444------------------------777777-4444444----------------|
E|---------------------------777777777-5555555555------------------777777-5555555-|

BRIDGE PRT 2:
G|-------------------H------------(2x)-|
D|-------------------O-----------------|
A|---------4444------L-------4444------|
E|-555-55-------7777-D-55555------7777-|
       ..      
                        
BRIDGE PRT 3:
G|----------------------------------------------------------------|
D|-----------------------------------------------------------------|
A|-----------444~-7777-------------444~-7777------------444~--7777-|
E|-555~-777~-------------555~-777~------------555~-777~------------|
   ..   ..   ..          ..   ..   ..         ..   ..   ..

BRIDGE PRT 4:
G|----------------------------|
D|----------------------------|
A|----------------------------|
E|-55------77------55------77-|
   ..      ..      ..      ..

VERSE 3:
G|-----------(2x)-|
D|----------------|
A|-777---444------|
E|-------------55-| 
               ..

G|-----------------------------------------------------------------------------------|
D|-----------------------------------------------------------------------------------|
A|-7777777777777/-9-9-9-9-9-9/1111/141414---77777777777777/-9-9-9-9-9-9-9-9----------|
E|---------------------------------------------------------------------------5~---7~-|

PRE-CHORUS:
G|--------------------------------(2x)-|
D|-------------------------------------|
A|------------------------------777777-|
E|-555555--777777--9-9-9-9-9-9---------| 
   .. ..   .. ..   . .   . .   

CHORUS:
G|-----------------------------------|
D|-----------------------------------|
A|---------4444---------------4444---|
E|-555-55-------7777---555-55------7-|
       ..                          .

OUTRO:
G|---------------------------------------------------------------|----|
D|---------------------------------------------------------------|----|
A|-777----44-------77---------------77----44------77-------------|-7~-|
E|-----55----777------55-77777777------55----777-----55-77777b\2-|----|




-------------------------------------------------------------------------------
06 SOBRANG INIT

INTRO:
G|-------(8x)-|----------------|
D|------------|----------------|
A|-2\1--------|-2\1-0-4\2--0-4-|
E|-----666666-|----------------|
       ......

VERSE 1:
G|-------(8x)-|----------------|
D|------------|----------------|
A|-2\1--------|-2\1-0-4\2--0-4-|
E|-----666666-|----------------|
       ......

CHORUS:
G|-----------------(8x)-|
D|----------------------|
A|----------------------|
E|-2-5-4--2--7--5--4--8-|

PRE-VERSE 2:
G|------------|-------(8x)-|----------------|
D|------------|------------|----------------|
A|------------|-2\1--------|-2\1-0-4\2--0-4-|
E|-2222222222-|-----666666-|----------------|
   ..........       ......

VERSE 2:
G|-------(8x)-|----------------|
D|------------|----------------|
A|-2\1--------|-2\1-0-4\2--0-4-|
E|-----666666-|----------------|
       ......

CHORUS:
G|-----------------(8x)-|
D|----------------------|
A|----------------------|
E|-2-5-4--2--7--5--4--8-|

BRIDGE PRT 1:
G|-----------------------|
D|-----------------------|
A|-------------2-1---2-1-|
D|-2---2--2--2-----2-----|

BRIDGE PRT 2:
G|----------------|
D|----------------|
A|------1-------1-|
E|-222-----222----|
   ...     ...

LAST PART:
G|------------------|
D|------------------|
A|------------------|
E|-2222222222222222-|

G|-----------------(8x)-|
D|----------------------|
A|----------------------|
E|-2-5-4--2--7--5--4--8-|

G|--------------|
D|--------------|
A|--------------|
E|-222222222222-|
   ............

G|---------------------------------------------------|
D|---------------------------------------------------|
A|---------------------------------------------------|
E|-2--22---2-2---22---2-2-2-2-2-2-2-2----22222222-22-|
   .  ..   . .   ..   . . . . . . . .    ........ ..

G|---------------|
D|---------------|
A|-2\1-----------|
E|------22222222-|

OUTRO:
G|-----(3x)-|----------------|
D|----------|----------------|
A|-2\1------|-2\1------------|
E|-----22-2-|------22-2-22-2-|
       .. .        .. . .. .



-------------------------------------------------------------------------------
07 A.I.D.S.

INTRO PRT 1:
G|----|
D|----|
A|-0~-|
E|----|

INTRO PRT 2:
G|---------------------------------------(4x)-|
D|--------------------------------------------|
A|-4-4-4-4-4-4-4--77777-----------------------|
E|-----------------------5-5-5-5-5-5-5--77777-|
   . . . . . . .         . . . . . . .

G|---------|---------------------------------------(4x)-|
D|---------|--------------------------------------------|
A|-7-5-4-0-|-4-4-4-4-4-4-4--77777-----------------------|
E|---------|-----------------------5-5-5-5-5-5-5--77777-|
             . . . . . . .         . . . . . . .

VERSE 1:
G|---------------------------------------(4x)-|
D|--------------------------------------------|
A|-4-4-4-4-4-4-4--77777-----------------------|
E|-----------------------5-5-5-5-5-5-5--77777-|
   . . . . . . .         . . . . . . .

PRE-VERSE 2:
G|------------------------------------------|
D|------------------------------------------|
A|-777777----------44444----------4-4-4-4---|
E|---------555555---------555555----------5-|
                                  . . . . .

VERSE 2:
G|----|---------------------------------------(4x)-|
D|----|--------------------------------------------|
A|-0~-|-4-4-4-4-4-4-4--77777-----------------------|
E|----|-----------------------5-5-5-5-5-5-5--77777-|
        . . . . . . .         . . . . . . .

PRE-CHORUS:
G|---------|------------------------------------------|
D|---------|------------------------------------------|
A|-7-5-4-0-|-777777----------44444----------4-4-4-4---|
E|---------|---------555555---------555555----------5-|
                                            . . . . .

CHORUS:
G|--------------------------(2x)-|----|
D|-------------------------------|----|
A|-777777----------44444---------|-7~-|
E|---------555555---------555555-|----|

BRIDGE:
G|--------------------------(2x)-|---------|
D|-------------------------------|---------|
A|-77--------------44------------|-7-5-4-0-|
E|---------55-------------55-----|---------|

G|----------------------------------------------------------------| 
D|----------------------------------------------------------------|
A|-4-4-4-4-4-4-4--77777----------------------4-4-4-4-4--77777--7~-|
E|-----------------------5-5-5-5-5--777777---------------------5~-|
   . . . . . . .         . . . . .           . . . . .

CHORUS:
G|--------------------------(2x)-|----|
D|-------------------------------|----|
A|-777777----------44444---------|-7~-|
E|---------555555---------555555-|----|

G|----|
D|----|
A|-7~-|
E|----|



-------------------------------------------------------------------------------
08 SHOOT DAT BOL



-------------------------------------------------------------------------------
09 AMBISYOSO

PUTO (Bass Intro):
G|-1111111111--141414--1212121212--141414--1111111111--141414--1212121212~-|
D|-1212121212--121212--1212121212--121212--1212121212--121212--1212121212~-|
A|-------------------------------------------------------------------------|
E|-------------------------------------------------------------------------|

INTRO PRT 2:
G|--------------------------------------------------------------------------|
D|--------------------------------------------------------------------------|
A|-5-9-7-9-7-5--4-5-5/7-5-4-0------------5-9-7-9-7-5--5-4-5-7-5-0-----------|
E|----------------------------2222-3333---------------------------2222-3333-|

VERSE 1:
G|--------------------------------------------------------------------------|
D|--------------------------------------------------------------------------|
A|-5-9-7-9-7-5--4-5-5/7-5-4-0------------5-9-7-9-7-5--5-4-5-7-5-0-----------|
E|----------------------------2222-3333---------------------------2222-3333-|

PRE-CHORUS:
G|-------------------------------------------|
D|-------------------------------------------|
A|-555555-------------------55555------------|
E|---------222222--333333----------22222--3~-|
   ......  ......  ......   .....  .....

CHORUS:
G|---------------------------------------|---------|
D|---------------------------------------|---------|
A|-55555-----------------55555-----------|---------|
E|--------22222--33333----------22222--3-|-2-3-2-5-|
                                       .

VERSE 2:
G|--------------------------------------------------------------------------|
D|--------------------------------------------------------------------------|
A|-5-9-7-9-7-5--4-5-5/7-5-4-0------------5-9-7-9-7-5--5-4-5-7-5-0-----------|
E|----------------------------2222-3333---------------------------2222-3333-|

PRE-CHORUS:
G|-------------------------------------------|
D|-------------------------------------------|
A|-555555-------------------55555------------|
E|---------222222--333333----------22222--3~-|
   ......  ......  ......   .....  .....

CHORUS:
G|--------------------------------------(2x)-|
D|-------------------------------------------|
A|-55555-----------------55555---------------|
E|--------22222--33333----------22222--33333-|
                                       
BRIDGE PRT 1:
G|--------------------------------------------------------|
D|--------------------------------------------------------|
A|------2222----------------2222--------22-55-------22-55-|
E|-5555-------3333333--5555-------33-55-------33-55-------|

BRIDGE PRT 2:
G|-xxxxxxxxxx--------(4x)-|
D|------------------------|
A|------------------------|
E|-------------22222-3333-|

BRIDGE PRT 3:
G|------------H------------H-------------------|
D|------------O------------O-------------------|
A|------------L------------L-------------------|
E|-22-3-2-3-2-D-22-3-2-3-2-D-22-3-2-3-2-555555-|
      . . . .      . . . .      . . .     

OUTRO:
G|---------------------------------------|
D|---------------------------------------|
A|-55555-----------------55555-----------|
E|--------22222--33333----------22222--3-|
                                       .



-------------------------------------------------------------------------------
10 DISCOKWELA

INTRO PRT 1:
G|----------------------2/4\2/4\2-|-----------|
D|--------------------------------|-----------|
A|-222--1/2\1/2\1--222------------|-5555-7777-|
E|---------------------------(2x)-|-----------|

INTRO PRT 2:
G|---------------------------------------------------------------------|
D|---------------------------------------------------------------------|
A|-22-1-2--5555-7777---22-1-2--1-22-1-2---22-1-2--555-777---22-1-2-----|
E|------------------------------------------------------------------2~-|

VERSE 1:
G|-------------------------------|----------------------|
D|-------------------------------|----------------------|
A|-1-2-1-2---1-2-1-2--5555--7777-|-5555--7777---9-9-9-9-|
E|-------------------------------|----------------------|
                                   ....  ....   . . . .

CHORUS:
G|---------------------------------------------------------------------|
D|---------------------------------------------------------------------|
A|-22-1-2--5555-7777---22-1-2--1-22-1-2---22-1-2--555-777---22-1-2-----|
E|------------------------------------------------------------------2~-|

VERSE 2:
G|-------------------------------|----------------------|
D|-------------------------------|----------------------|
A|-1-2-1-2---1-2-1-2--5555--7777-|-5555--7777---9-9-9-9-|
E|-------------------------------|----------------------|
                                   ....  ....   . . . .

CHORUS 2:
G|---------------------------------------------------------------------|
D|---------------------------------------------------------------------|
A|-22-1-2--5555-7777---22-1-2--1-22-1-2---22-1-2--555-777---22-1-2-----|
E|------------------------------------------------------------------2~-|

BRIDGE PRT 1:
G|------------------------|-------------------|
D|------------------------|-------------------|
A|------------------------|-------------------|
E|-xxxxxxxxxxxxxxxxxxxxxx-|-5~---5~---5~---5~-|

BRIDGE PRT 2:
G|------------------------------------(4x)-|
D|-----------------------------------------|
A|----------------------------------555555-|
E|-55555--33333-22222---55555-88888--------|

OUTRO:
G|---------------------------------------------------------------------|
D|---------------------------------------------------------------------|
A|-22-1-2--5555-7777---22-1-2--1-22-1-2---22-1-2--555-777---22-1-2-----|
E|------------------------------------------------------------------2~-|

G|-------|
D|-------|
A|-2-1-2-|
E|-------|
   . . .




-------------------------------------------------------------------------------
11 PETIX

tgnan nyo nlng ung ibng tab tama nmn un


-------------------------------------------------------------------------------
12 MY TENDER BEAR

INTRO:
G|-------------------------------(4x)-|
D|------------------------------------|
A|----------44\22/4--55\44/5--77-55-4-|
E|-55\44/5----------------------------|

VERSE 1:
G|----------------------------------------------------|
D|----------------------------------------------------|
A|-----------555--777--777--555------------555--77777-|
E|-555--222----------------------555--222-------------|

CHORUS:
G|-------------------------------(4x)-|
D|------------------------------------|
A|----------44\22/4--55\44/5--77-55-4-|
E|-55\44/5----------------------------|

VERSE 2:
G|----------------------------------------------------|
D|----------------------------------------------------|
A|-----------555--777--777--555------------555--77777-|
E|-555--222----------------------555--222-------------|

CHORUS 2:
G|-------------------------------(4x)-|
D|------------------------------------|
A|----------44\22/4--55\44/5--77-55-4-|
E|-55\44/5----------------------------|

G|--------------------------------| 
D|--------------------------------|
A|----------44\22/4--55\44/5--7-5-|
E|-55\44/5------------------------|
                              . .

BRIDGE PRT 1:
G|------H---------H------H-------------------------------------------------------------|
D|------O---------O------O-------------------------------------------------------------|
A|------L------55-L------L------55---------------55---------------55------------55-----|
E|-5555-D-2222----D-5555-D-2222----xxx5555xxx222---xxx5555xxx2222-----555xxx222---xxxx-|

G|-------------------------|
D|-------------------------|
A|--------------------2222-|
E|-0000--2222--44444-------|

PUTO (Bass Solo):
G|----------------------------------------------------------------------------
D|----------------------------------------------------------------------------
A|----4-4-5-5/7-5-4-5-----4-4-5-7-9-7-----4-4-5-5/7-5-4-5--1010-9-7-99-7-9----
E|-5b------------------5b--------------5b-------------------------------------

-------------------------------------------------------------------------------------------|
-------------------------------------------------------------------------------------------|
-----4-4-5-5/7-5-4-5-----4-4-5-7-9-7---1010-9-7-99-7-9-----4-5-7-5-4-5-----4-4-5-5/7-4-5---|
-5b-------------------5b---------------------------------5--------------5b-----------------|

BRIDGE PRT 3:
G|-----------------|
D|-----------------|
A|-----------------|
E|-4h5-4h5-4h5-4h5-|

G|-------------------------------(4x)-|
D|------------------------------------|
A|----------44\22/4--55\44/5--77-55-4-|
E|-55\44/5----------------------------|

VERSE 3:
G|---------------------------------------------|
D|------------------------------------4-5-4--0-|
A|------------4-5-4--------4-5-4---------------|
E|-5555-----5-------5-7--2-------5-7-----------|

G|-------------|
D|-------------|
A|-------5-7-5-|
E|-5--2--------|
   .  .  . . .

G|--------------------------------------------|
D|--------------------------------------------|
A|----------444-444--5-5-5-5--777777777777777-|
E|-555-555--222-222---------------------------|
   ... ...  ... ...  . . . .

G|-------------------------------(4x)-|
D|------------------------------------|
A|----------44\22/4--55\44/5--77-55-4-|
E|-55\44/5----------------------------|

OUTRO:
G|------H---------H------H-------------------------------------------------------------|
D|------O---------O------O-------------------------------------------------------------|
A|------L------55-L------L------55---------------55---------------55------------55-----|
E|-5555-D-2222----D-5555-D-2222----xxx5555xxx222---xxx5555xxx2222-----555xxx222---xxxx-|

G|-------------------------|
D|-------------------------|
A|--------------------2222-|
E|-0000--2222--44444-------|



-------------------------------------------------------------------------------
13 APIR DAY

INTRO PRT 1:
G|-6-6-6-6----x-5-x-5-x-55-|
D|-------------------------|
A|-------------------------|
E|-------------------------|
   . . . .      .   .   .. 

INTRO PRT 2:
G|-6666666-7777777-9999999-101010/121212-|
D|---------------------------------------|
A|---------------------------------------|
E|---------------------------------------|
   ....    ....    ....    ......

VERSE 1:
G|-66--77--99--77---66--77--9999--101010-|
D|---------------------------------------|
A|---------------------------------------|
E|---------------------------------------|
  ..  ..  ..  ..   ..  ..  ....  . . .

CHORUS:
G|-6666666-7777777-9999999-101010/121212-|
D|---------------------------------------|
A|---------------------------------------|
E|---------------------------------------|
   ....    ....    ....    ......

VERSE 2:
G|-66--77--99--77---66--77--9999--101010-|
D|---------------------------------------|
A|---------------------------------------|
E|---------------------------------------|
  ..  ..  ..  ..   ..  ..  ....  . . .

CHORUS:
G|-6666666-7777777-9999999-101010/121212-|
D|---------------------------------------|
A|---------------------------------------|
E|----------------------------------(2x)-|
   ....    ....    ....    ......

BRIDGE PRT 2:
G|-66--77--99--1010-|
D|------------------|
A|------------------|
E|-------------(3x)-|
  ..  ..  ..  . .

NO INSTRUMENTS

OY!OY!OY!!
G|-66--77--9999--101010-|
D|----------------------|
A|----------------------|
E|----------------------|
   ..  ..  ..    ......

G|-6666666-7777777-9999999-101010/121212-|
D|---------------------------------------|
A|---------------------------------------|
E|---------------------------------------|
  ....    ....    ....    ......


OUTRO:
G|-6666666-7777777-9999999-101010/121212-|
D|---------------------------------------|
A|---------------------------------------|
E|---------------------------------------|
  ....    ....    ....    ......



-------------------------------------------------------------------------------
14 K.K.K.

INTRO PRT 1:
G|---------|
D|-0--0--0-|
A|---------|
E|---------|
   .  .  .

INTRO PRT 2:
G|--------------------(4x)-|
D|-------------------------|
A|-5555555555555-----------|
E|-----------------444-333-|
   .............

VERSE 1:
G|------------------------------------------------------------
D|------------------------------------------------------------
A|-----------------------------------0-2-4---------00-0--00-0-
E|-0-1-3-0-1-0---0-1-3-0-1-0---0-1-3--------------------------
                                                   .. .  .. .

>>
--------------------------------------------------------------
---------------------------------------0-3-4-3----------------
---------------------------------0-2-4---------00-8\2--00-8\2-
-0-1-3-0-1-0--0-1-3-0-1-0--0-1-3------------------------------
>>
-------------------------------------------------------------|
-----------------------------------------0-3-4-3-------------|
-----------------------------------0-2-4----------00-0--00-0-|
-0-1-3-0-1-0---0-1-3-0-1-0---0-1-3---------------------------|
                                                  .. .  .. .

PRE-CHORUS:
G|--------(4x)-|---------|
D|-------------|-0--0--0-|
A|-------------|---------|
E|-2-1-0-2-4-2-|---------|
                 .  .  .

CHORUS:
G|--------------------(4x)-|
D|-------------------------|
A|-5555555555555-----------|
E|-----------------444-333-|
   .............

VERSE 2:
G|------------------------------------------------------------
D|------------------------------------------------------------
A|-----------------------------------0-2-4---------00-0--00-0-
E|-0-1-3-0-1-0---0-1-3-0-1-0---0-1-3--------------------------
                                                   .. .  .. .

>>
--------------------------------------------------------------
---------------------------------------0-3-4-3----------------
---------------------------------0-2-4---------00-8\2--00-8\2-
-0-1-3-0-1-0--0-1-3-0-1-0--0-1-3------------------------------
>>
-------------------------------------------------------------|
-----------------------------------------0-3-4-3-------------|
-----------------------------------0-2-4----------00-0--00-0-|
-0-1-3-0-1-0---0-1-3-0-1-0---0-1-3---------------------------|
                                                  .. .  .. .
 
PRE-CHORUS:
G|--------(4x)-|---------|
D|-------------|-0--0--0-|
A|-------------|---------|
E|-2-1-0-2-4-2-|---------|
                 .  .  .

CHORUS:
G|--------------------(4x)-|
D|-------------------------|
A|-5555555555555-----------|
E|-----------------444-333-|
   .............

Bridge prt.1:
G|-----------xxxxxxxxx---------------------------------------------------------------------|
D|-----------------------------------------------------------------------------------------|
A|-----------------------------------------------------------------------------------------|
E|-0~----0~-------------000~-000~-000~-000~--000~--000~--00-1--00-1--00-1--00-1-00-1--00-1-|
                        ..   ..   ..   ..    ..    ..

Bridge prt.2:
G|----------------------|
D|----------------------|
A|----------------------|
E|-00--000--00--000--00-|
   ..  ...  ..  ...  ..

G|-----0----------0---------0-----|
D|--------------------------------|
A|--------------------------------|
E|-000---000--000---000-000---000-|
   ...   ...  ...   ... ...   ...

PRE-CHORUS:
G|--------(4x)-|---------|
D|-------------|-0--0--0-|
A|-------------|---------|
E|-2-1-0-2-4-2-|---------|
                 .  .  .

CHORUS:
G|--------------------(4x)-|
D|-------------------------|
A|-5555555555555-----------|
E|-----------------444-333-|
   .............

Outro:
G|-------------------------------|
D|-------------------------------|
A|-555555555555555555555---------|
E|-----------------------444-333-|
   ..................... 

Pepeng Mahapon

G|--------------------------------|
D|-----7-7-6-6-5-5------9-9-8-8-7-|
A|-0-5--------------0-5-----------|
E|--------------------------------|



-------------------------------------------------------------------------------
13 NARDA (Acoustic)




-------------------------------------------------------------------------------
para 2 sa Flying Underground (gio,ashley,lean,janro) kila jr,loui at hiro..
------------------------------------------------------------------------------- 

            
            
Suggest correction
Creating personal tab
Creating personal tab
You can edit any tab online and save it as your Personal.

You can edit, replace or remove any tab part or add personal notes – all changes will be seen only by you.

Personal tabs can be accessed anytime from any device, even offline.
Learn more »
Give kudos to tab author, rate the tab!
1 2 3 4 5
comments
print report bad tab
guest
You may want to rate the tab now too:
select rating
Wanna post a correction for this tab? Suggest correction