Oops, an error
Loading. Please wait.

Martyr Nyebera tab

version 2
version 2

Whole song

Interactive

17,080 views 18 this week
11 commentsread comments
1 2 3 4 5
x 5
add to favorites
×
Save as Personal and add changes to this tab that will be seen only by you. Learn more ›
×
You can save this tab as Personal to edit and correct it or add notes. All changes will be seen only by you. Learn more »
launch autoscroll
font size
0
reset
how to read this tab
guitar tuner
backing track
0:00
0:00
edit
Autoscroll
slow
fast
+/-
esc
set tempo
stop
Author
Difficulty
Name - Josef Ivrel C. Kagaoan
Skul - School of Saint Anthony

Hindi ako sure kung accurate ung ibang parts dito o hindi..lalong lalo na ung part ng 
nahirapan ako dun...haha...
Pag may mali, itama nyo nalang...Feel free to give comments...Paki rate na lng din...:p

Intro
-Guitar1-
|-----------------------------------------------------|
|-----------------------------------------------------|
|-------------6-7--------6/777---6/777---6/777---999--| X2
|--7-2-xxxx---6-7-xxxx---6/777---6/777---6/777---999--|
|--7-2-xxxx---4-5-xxxx---4/555---4/555---4/555---777--|
|--5-0-xxxx-------xxxx--------------------------------|

-Guitar1-
|---------------------------------------|
|---------------------------------------|
|--------------------7-7-7-7---9-9-9-9--|X2
|--7-7-7-7-7-7-7-7---7-7-7-7---9-9-9-9--|
|--7-7-7-7-7-7-7-7---5-5-5-5---7-7-7-7--|
|--5-5-5-5-5-5-5-5----------------------|
||-Guitar2-
|----------------------------------------------|
|----------------------------------------------|
|--6---7\9-7-6---7\9-7-6-7-6-7-----------------|
|----7---------7---------------7-9-9\11-9-7-9--|
|----------------------------------------------|
|----------------------------------------------|
==
|------------------------------------------------|
|------------------------------------------------|
|--6---7\9-7-6---7\9-7-6-7-6-7-------------------|
|----7---------7---------------7-9-9\11-9-7-9-7--|
|------------------------------------------------|
|------------------------------------------------|

Verse 1
-Guitar1-
|-----------------------------------------------------------------------|
|-----------------------------------------------------------------------|
|------------------------------------7-x-x-x-x-x-x-x---9-x-x-x-x-x-x-x--|
|--7-x-x-x-x-x-x-x-x-x-x-x-x-x-x-x---7-x-x-x-x-x-x-x---9-x-x-x-x-x-x-x--|
|--7-x-x-x-x-x-x-x-x-x-x-x-x-x-x-x---5-x-x-x-x-x-x-x---7-x-x-x-x-x-x-x--|
|--5-x-x-x-x-x-x-x-x-x-x-x-x-x-x-x--------------------------------------|
==
|-----------------------------------------------------------------------|
|-----------------------------------------------------------------------|
|------------------------------------7-x-x-x-x-x-x-x---x-9-x-9-x-9-x-9--|
|--7-x-x-x-x-x-x-x-x-x-x-x-x-x-x-x---7-x-x-x-x-x-x-x---x-9-x-9-x-9-x-9--|
|--7-x-x-x-x-x-x-x-x-x-x-x-x-x-x-x---5-x-x-x-x-x-x-x---x-7-x-7-x-7-x-7--|
|--5-x-x-x-x-x-x-x-x-x-x-x-x-x-x-x--------------------------------------|

-Guitar1-
|--------------------------------------------|
|--------------------------------------------|
|--------------------7-7-7-7---9-9-9-9-------|
|--7-7-7-7-7-7-7-7---7-7-7-7---9-9-9-9-------|
|--7-7-7-7-7-7-7-7---5-5-5-5---7-7-7-7-------|
|--5-5-5-5-5-5-5-5----------------------|----|
||-Guitar2-                                X2
|---------------------------------------|----|
|--------------------------------------------|
|--------------------7-7-7-7---9-9-9-9-------|
|--7-7-7-7-7-7-7-7---x-x-x-x---x-x-x-x-------|
|--x-x-x-x-x-x-x-x---5-5-5-5---7-7-7-7-------|
|--5-5-5-5-5-5-5-5---------------------------|

-Guitar1-
|--------------------------P--|
|--------------------------A--|
|----------------------7---U--|
|--7-7-7-7---2-2-2-2---7---S--|
|--7-7-7-7---2-2-2-2---5---E--|
|--5-5-5-5---0-0-0-0-------!--|

Chorus
-Guitar1-
|-----------------------------------------|
|-----------------------------------------|
|------------9-9-9-9---6-6-6-6---7-7-7-7--|
|--7-7-7-7---9-9-9-9---6-6-6-6---7-7-7-7--|
|--7-7-7-7---7-7-7-7---4-4-4-4---5-5-5-5--|
|--5-5-5-5--------------------------------|
==
|-------------------------------------------------------|
|-------------------------------------------------------|
|------------9-9-9-9---6-6-6-6---6/7---6/7---6/7--------|
|--7-7-7-7---9-9-9-9---6-6-6-6---6/7---6/7---6/7---8-7--|
|--7-7-7-7---7-7-7-7---4-4-4-4---4/5---4/5---4/5---8-7--|
|--5-5-5-5-----------------------------------------6-5--|

-Guitar1-
|-----------------------------------------|
|-----------------------------------------|
|------------9-9-9-9---6-6-6-6---7-7-7-7--|
|--7-7-7-7---9-9-9-9---6-6-6-6---7-7-7-7--|
|--7-7-7-7---7-7-7-7---4-4-4-4---5-5-5-5--|
|--5-5-5-5--------------------------------|
||-Guitar2-
|-----------------------------------------|
|-----------------------------------------|
|------------9-9-9-9---6-6-6-6---7-7-7-7--|
|--7-7-7-7---x-x-x-x---x-x-x-x---x-x-x-x--|
|--x-x-x-x---7-7-7-7---4-4-4-4---5-5-5-5--|
|--5-5-5-5--------------------------------|

-Guitar1-
|------------------------------------------------------|
|------------------------------------------------------|
|------------9-9-9-9---6-6-6-6---6/7---6/7---6/7-------|
|--7-7-7-7---9-9-9-9---6-6-6-6---6/7---6/7---6/7---8---|
|--7-7-7-7---7-7-7-7---4-4-4-4---4/5---4/5---4/5---8---|
|--5-5-5-5-----------------------------------------6---|
||-Guitar2-
|-------------------------------|
|-------------------------------|
|------------9-9-9-9---6-6-6-6--|
|--7-7-7-7---x-x-x-x---x-x-x-x--|
|--x-x-x-x---7-7-7-7---4-4-4-4--|
|--5-5-5-5----------------------|

Repeat Pattern for Intro

Verse 2
-Guitar1-
|-----------------------------------------------------------------------|
|-----------------------------------------------------------------------|
|------------------------------------7-x-x-x-x-x-x-x---9-x-x-x-x-x-x-x--|
|--7-x-x-x-x-x-x-x-x-x-x-x-x-x-x-x---7-x-x-x-x-x-x-x---9-x-x-x-x-x-x-x--|
|--7-x-x-x-x-x-x-x-x-x-x-x-x-x-x-x---5-x-x-x-x-x-x-x---7-x-x-x-x-x-x-x--|
|--5-x-x-x-x-x-x-x-x-x-x-x-x-x-x-x--------------------------------------|
||-Guitar2-
|---------------------------------------------|
|---------------------------------------------|
|----9-7-6h7---9-7-6h7---9-7-6h7---9----------|
|--7---------7---------7---------7---7-7-9-7--|
|---------------------------------------------|
|---------------------------------------------|

-Guitar1-
|-----------------------------------------------------------------------|
|-----------------------------------------------------------------------|
|------------------------------------7-x-x-x-x-x-x-x---x-9-x-9-x-9-x-9--|
|--7-x-x-x-x-x-x-x-x-x-x-x-x-x-x-x---7-x-x-x-x-x-x-x---x-9-x-9-x-9-x-9--|
|--7-x-x-x-x-x-x-x-x-x-x-x-x-x-x-x---5-x-x-x-x-x-x-x---x-7-x-7-x-7-x-7--|
|--5-x-x-x-x-x-x-x-x-x-x-x-x-x-x-x--------------------------------------|
||-Guitar2-
|---------------------------------|
|---------------------------------|
|----9-7-6h7---9-7-6h7---9-7-6h7--|
|--7---------7---------7----------|
|---------------------------------|
|---------------------------------|

-Guitar1-
|---------------------------------------|
|---------------------------------------|
|--------------------7-7-7-7---9-9-9-9--|X2
|--7-7-7-7-7-7-7-7---7-7-7-7---9-9-9-9--|
|--7-7-7-7-7-7-7-7---5-5-5-5---7-7-7-7--|
|--5-5-5-5-5-5-5-5----------------------|
||-guitar2-
|---------------------------------|
|---------------------------------|
|---------------------------------| X2
|--7-7-7-7---5-5-5-5---4-4---2-2--|
|--x-x-x-x---x-x-x-x---x-x---x-x--|
|--5-5-5-5---3-3-3-3---2-2---x-x--|

-Guitar1-
|--------------------------P--|
|--------------------------A--|
|----------------------7---U--|
|--7-7-7-7---2-2-2-2---7---S--|
|--7-7-7-7---2-2-2-2---5---E--|
|--5-5-5-5---0-0-0-0-------!--|

Repeat Pattern for Chorus

Adlib1 (wala po akong narinig na power chords dun sa unang dalawang part nung adlib...
       paumanhin po kung nagkamali ako)
-Guitar1-
|-------------------------------------------------------------------|
|-------------------------------------------------------------------|
|-------------------------------------------------------------------|
|--7-7-7-7-6-6-6-6---------7-7-6-6-----7-7-6-6-----7-7-6-6----------|
|------------------6-6-6-6---------6-6---------6-6---------7-7-7-7--|
|-------------------------------------------------------------------|
||-Guitar2-
|--------------------------------------------------------------------------------------------|
|-11-11-11-11-10-10-10-10-----------11-11-10-10-----11-11-10-10-----11-11-10-10--------------|
|------------------------10-10-10-10-----------10-10-----------10-10------------10-10-10-10--|
|--------------------------------------------------------------------------------------------|
|--------------------------------------------------------------------------------------------|
|--------------------------------------------------------------------------------------------|

-Guitar1-
|-------------------------------------------------------------------|
|-------------------------------------------------------------------|
|-------------------------------------------------------------------|
|--7-7-7-7-6-6-6-6---------7-7-6-6-----7-7-6-6-----x-7-x-7-x-7-x-7--|
|------------------6-6-6-6---------6-6---------6-6-x-7-x-7-x-7-x-7--|
|--------------------------------------------------x-5-x-5-x-5-x-5--|
||-Guitar2-
|---------------------------------------------------------------------------------------|
|-11-11-11-11-10-10-10-10-----------11-11-10-10------11-11-10-10------------------------|
|------------------------10-10-10-10------------10-10-----------10-10-------------------|
|----------------------------------------------------------------------x-7-x-7-x-7-x-7--|
|----------------------------------------------------------------------x-x-x-x-x-x-x-x--|
|----------------------------------------------------------------------x-5-x-5-x-5-x-5--|

-Guitar1-
|-------------------------------------------|    |--------------------------------------------------|
|-------------------------------------------|    |--------------------------------------------------|
|-------------------------------------------| X2 |--------------------------------------------------|
|--7-7-7-7-9-9-9-9-11-11-11-11-14-14-14-14--|    |--7-7-7-7-6-6-6-6-------7-7-6-6---7-7-6-6---------|
|-------------------------------------------|    |-----------------7-7-7-7-------7-7-------7(ring)--|
|-------------------------------------------|    |--------------------------------------------------|
||-Guitar2-
|-------------------------------------------------------------------|
|-------------13p11--------------------13p11h13/14-----------13p12--|
|--15-15-15-15-----14/15-15-15-15-15-15-----------15-15-15-15-------| X4
|-------------------------------------------------------------------|
|-------------------------------------------------------------------|
|-------------------------------------------------------------------|

-Guitar1-
|-----------------------------------------------------------------------|
|-----------------------------------------------------------------------|
|--------------------------------------7-7-7-7-7-7-7-7-7-7-7-7-7-7-7-7--|
|--7-7-7-7-7-7-7-7---2-2-2-2-2-2-2-2---7-7-7-7-7-7-7-7-7-7-7-7-7-7-7-7--|
|--7-7-7-7-7-7-7-7---2-2-2-2-2-2-2-2---5-5-5-5-5-5-5-5-5-5-5-5-5-5-5-5--|
|--5-5-5-5-5-5-5-5---0-0-0-0-0-0-0-0------------------------------------|
||-Guitar2-
|--------------------------------------------------------10-10-10-10-8-8-8-8-6-6-6-6-5-5-5-5--|
|--9/11-11-11-11-11-11-11-11-10-10-10-10/11-11-11-11-11//-------------------------------------|
|---------------------------------------------------------------------------------------------|
|---------------------------------------------------------------------------------------------|
|---------------------------------------------------------------------------------------------|
|---------------------------------------------------------------------------------------------|

-Guitar1-
|-------------------------------------------------|
|-------------------------------------------------|
|--------------------------------------7---6------|
|--7-7-7-7-7-7-7-7---2-2-2-2-2-2-2-2---7---6---7--|
|--7-7-7-7-7-7-7-7---2-2-2-2-2-2-2-2---5---4---7--|
|--5-5-5-5-5-5-5-5---0-0-0-0-0-0-0-0-----------5--|
||-Guitar2-
|------------------------------------------------------------------------|
|--11-11-11-10-10-10-11-11-11-13-13-13-11-11-11-10-10-10---11---10---11--|
|------------------------------------------------------------------------|
|------------------------------------------------------------------------|
|------------------------------------------------------------------------|
|------------------------------------------------------------------------|

Bridge
-Acoustic/Guitar1-
 A - E - C#m - D X2
||-Guitar2-pakkingan nyo nlng mabuti para makuha nyo ung timing
|------------------------------------|
|--6------3--------------------------|
|-------------------7-8-10-8-7-8-12--|
|------------------------------------|
|------------------------------------|
|------------------------------------|

-Guitar1-(very light strum)
|-------------------------------------------------------------------------|
|-------------------------------------------------------------------------|
|--------------------6-6-6-6-6-6-6-6---7-7-7-7-7-7-7-7---9-9-9-9-9-9-9-9--|
|--7-7-7-7-7-7-7-7---6-6-6-6-6-6-6-6---7-7-7-7-7-7-7-7---9-9-9-9-9-9-9-9--|
|--7-7-7-7-7-7-7-7---4-4-4-4-4-4-4-4---5-5-5-5-5-5-5-5---7-7-7-7-7-7-7-7--|
|--5-5-5-5-5-5-5-5--------------------------------------------------------|
||-Guitar2-
|------------------------|    |--------------------------|
|--11-10-11-11/13-11-10--|    |--11-10-11-11/13-11-10-4--|
|------------------------| X2 |--------------------------|
|------------------------|    |--------------------------|
|------------------------|    |--------------------------|
|------------------------|    |--------------------------|

-Guitar1-(Normal na ung strum)
|-------------------------------------------------------------------------|
|-------------------------------------------------------------------------|
|--------------------6-6-6-6-6-6-6-6---7-7-7-7-7-7-7-7---9-9-9-9-9-9-9-9--| X2
|--7-7-7-7-7-7-7-7---6-6-6-6-6-6-6-6---7-7-7-7-7-7-7-7---9-9-9-9-9-9-9-9--|
|--7-7-7-7-7-7-7-7---4-4-4-4-4-4-4-4---5-5-5-5-5-5-5-5---7-7-7-7-7-7-7-7--|
|--5-5-5-5-5-5-5-5--------------------------------------------------------|
||-Guitar2-
|-------------------------------------------------------------------------|
|-------------------------------------------------------------------------|
|--------------------6-6-6-6-6-6-6-6---7-7-7-7-7-7-7-7---9-9-9-9-9-9-9-9--| X2
|--7-7-7-7-7-7-7-7---x-x-x-x-x-x-x-x---x-x-x-x-x-x-x-x---x-x-x-x-x-x-x-x--|
|--x-x-x-x-x-x-x-x---4-4-4-4-4-4-4-4---5-5-5-5-5-5-5-5---7-7-7-7-7-7-7-7--|
|--5-5-5-5-5-5-5-5--------------------------------------------------------|

Do a Pick Slide

Adlib2
-Guitar1-
|-------------------------------------------------------------------------------------------|
|-------------------------------------------------------------------------------------------|
|-6-6-6---4-4-4-----------------------------------------------------------------------------|
|-6-6-6---4-4-4---6-6-6----7-7-7---6-6----7-7---6-6-6---7-7-7---9-9-9----7-x-7---7-x-7-x-7--|
|-4-4-4---2-2-2---6-6-6----7-7-7---6-6----7-7---6-6-6---7-7-7---9-9-9----7-x-7---7-x-7-x-7--|
|-----------------4-4-4----5-5-5---4-4----5-5---4-4-4---5-5-5---7-7-7----5-x-5---5-x-5-x-5--|
==
|----------------------------------------------------------------------P--|
|----------------------------------------------------------------------A--|
|-6-6-6---4-4-4--------------------------------------------------------U--|
|-6-6-6---4-4-4---6-6-6----7-7-7---6-6----7-7---6-6-6---7-7-7---9-9-9--S--|
|-4-4-4---2-2-2---6-6-6----7-7-7---6-6----7-7---6-6-6---7-7-7---9-9-9--E--|
|-----------------4-4-4----5-5-5---4-4----5-5---4-4-4---5-5-5---7-7-7--!--|

Repeat Chorus

After "Away, away, away na 'to"
-Guitar1-
|-----------------------------------------|
|-----------------------------------------|
|------------9-9-9-9---6-6-6-6---7-7-7-7--|
|--7-7-7-7---9-9-9-9---6-6-6-6---7-7-7-7--|
|--7-7-7-7---7-7-7-7---4-4-4-4---5-5-5-5--|
|--5-5-5-5--------------------------------|
||-Guitar2-
|-------------------------------------------------------------------|
|-------------------------------------------------------------------|
|-------------------------------------------------------------------|
|--7-7-7-7-6-6-6-6---------7-7-6-6-----7-7-6-6-----7-7-6-6----------|
|------------------6-6-6-6---------6-6---------6-6---------7-7-7-7--|
|-------------------------------------------------------------------|

-Guitar1-
|-------------------------------------------------------P--|             |-----|
|-------------------------------------------------------A--|             |-----|
|------------9-9-9-9---6-6-6-6---6/7---6/7---6/7--------U--|             |-----|
|--7-7-7-7---9-9-9-9---6-6-6-6---6/7---6/7---6/7---8-7--S--|             |--7--|
|--7-7-7-7---7-7-7-7---4-4-4-4---4/5---4/5---4/5---8-7--E--|             |--7--|
|--5-5-5-5-----------------------------------------6-5--!--|             |--5--|
||-Guitar2-
|-------------------------------------------------------------------P--| |-----|
|-------------------------------------------------------------------A--| |-----|
|-------------------------------------------------------------------U--| |-----|
|--7-7-7-7-6-6-6-6---------7-7-6-6-----7-7-6-6-----7-7-6-6----------S--| |--7--|
|------------------6-6-6-6---------6-6---------6-6---------7-7-7-7--E--| |--7--|
|-------------------------------------------------------------------!--| |--5--|

-End-

Friendster account: ivrelk@yahoo.com

Pa-add nlng po kung gusto nyo para dumami friends ko:pMas ok kung bibigyan mo ko ng testi:p
Ingatz!!
Suggest correction
Creating personal tab
Creating personal tab
You can edit any tab online and save it as your Personal.

You can edit, replace or remove any tab part or add personal notes – all changes will be seen only by you.

Personal tabs can be accessed anytime from any device, even offline.
Learn more »
comments
print report bad tab
11 comments total. Showing first comments.
0 reply
chinx090 10 Aug 04, 2006 06:41 AM

Wow... nice one, vrel! hehe... master! \m/

0 reply
zephy002 10 Aug 09, 2006 03:22 AM

YO... idol sipag mo tol ronel toh... bka di mo kilala.. stig kuhang kuha!!

0 reply
jrmarcellana 10 Aug 14, 2006 04:28 AM

PUTANG INA MO UNG ADLIB WALA NAMAN UNG BASE AMPF KA LID MO LOCALS

guest
You may want to rate the tab now too:
select rating
Wanna post a correction for this tab? Suggest correction