Oops, an error
Loading. Please wait.

Narda Tab

version 1
version 1

Whole song

Interactive

93,553 views 102 this week
4 commentsread comments
1 2 3 4 5
x 6
add to favorites
launch autoscroll
font size
0
reset
how to read this tab
guitar tuner
Autoscroll
slow
fast
+/-
esc
set tempo
stop
Help us to improve Ultimate-Guitar.com Take our survey!
×
Author
[Intro]

GUITAR 1
e|--------0-----0-----0-------------0-----0-----0--------------0-----0-----0--------|
B|-----3----3-----3-----3---3----3----3-----3-----3---3-----3----3-----3-----3----3-|
G|----------------------------------------------------------------------------------|
D|---0--0-----0-----0-----0---------------------------------------------------------|
A|-----------------------------2--2-----2-----2-----2-------------------------------|
E|--------------------------------------------------------3--3-----3-----3-----3----|

e|--------0------3~~--------------|
B|-----3----3----3~~--------------|
G|--------------------------------| TAP!
D|--------------------------------|
A|---0--0-----0-------------------|
E|--------------------------------|

THEN
e|---------------------------------------------------------------------------------|
B|--6-6-6-6-6-6-6---3-3-3-3-3-3-3--------------------------------------------------|
G|--7-7-7-7-7-7-7---4-4-4-4-4-4-4---4-4-4-4-4-4-4---6-6-6-6-6-6-6--10-10-10-8-8-8--|
D|--7-7-7-7-7-7-7---4-4-4-4-4-4-4---5-5-5-5-5-5-5---7-7-7-7-7-7-7--11-11-11-9-9-9--| sabay nyo sa tyming
A|--5-5-5-5-5-5-5---2-2-2-2-2-2-2---5-5-5-5-5-5-5---7-7-7-7-7-7-7--11-11-11-9-9-9--|
E|----------------------------------3-3-3-3-3-3-3---5-5-5-5-5-5-5---9--9--9-7-7-7--|

pasok
GUITAR 2
e|----------------------------------------------|
B|--9-9-9-9---7-7---9-9-9-9---7-7---9-9---7-7---| (2X)
G|----------------------------------------------|
D|----------------------------------------------|
A|----------------------------------------------|
E|----------------------------------------------|


e|----------------------|
B|--7-7h9-7-7-7h9-7---7-| (2X)
G|------------------7---|
D|----------------------|
A|----------------------|
E|----------------------|

GUITAR 1
e|-----------------------------------------------------------------|
B|--6-6-6-6-6-6-6---3-3-3-3-3-3-3----------------------------------|
G|--7-7-7-7-7-7-7---4-4-4-4-4-4-4---4-4-4-4-4-4-4---6-6-6-6-6-6-6--|
D|--7-7-7-7-7-7-7---4-4-4-4-4-4-4---5-5-5-5-5-5-5---7-7-7-7-7-7-7--|
A|--5-5-5-5-5-5-5---2-2-2-2-2-2-2---5-5-5-5-5-5-5---7-7-7-7-7-7-7--|
E|----------------------------------3-3-3-3-3-3-3---5-5-5-5-5-5-5--|


[Verse]

GUITAR 1
e|---0-----0-----0-----0----0----0-----0-----0-----0----0----0----0-----0----0-----0----0---0---|
B|-----3-----3-----3-----3---3-----3----3-----3-----3----3----3-----3----3-----3-----3----3--3--|
G|----------------------------------------------------------------------------------------------|
D|-0-----0----0-----0-----0---------------------------------------------------------------------|
A|-----------------------------2-----2-----2-----2-----2----------------------------------------|
E|--------------------------------------------------------------3------3----3-----3-----3-------|

e|-----0-----0-----3~~-------------|
B|-------3-----3---3~~-------------|
G|---------------------------------|
D|---------------------------------|
A|---0-----0-----0-----------------|
E|---------------------------------|

GUITAR 2
e|------------------------------------------------------------------|
B|--6-6-6-6-6-6-6---3-3-3-3-3-3-3-----------------------------------|
G|--7-7-7-7-7-7-7---4-4-4-4-4-4-4---4-4-4-4-4-4-4---6-6-6-6-6-6-6---|
D|--7-7-7-7-7-7-7---4-4-4-4-4-4-4---5-5-5-5-5-5-5---7-7-7-7-7-7-7---|
A|--5-5-5-5-5-5-5---2-2-2-2-2-2-2---5-5-5-5-5-5-5---7-7-7-7-7-7-7---|
E|----------------------------------3-3-3-3-3-3-3---5-5-5-5-5-5-5---|

sa part na "mapapansin kaya sa dame ng yong ginagawa"
GUITAR 1&2(palm mute)
e|------------------------------------------------------------------|
B|--6-6-6-6-6-6-6---3-3-3-3-3-3-3-----------------------------------|
G|--7-7-7-7-7-7-7---4-4-4-4-4-4-4---4-4-4-4-4-4-4---6-6-6-6-6-6-6---|
D|--7-7-7-7-7-7-7---4-4-4-4-4-4-4---5-5-5-5-5-5-5---7-7-7-7-7-7-7---|
A|--5-5-5-5-5-5-5---2-2-2-2-2-2-2---5-5-5-5-5-5-5---7-7-7-7-7-7-7---|
E|----------------------------------3-3-3-3-3-3-3---5-5-5-5-5-5-5---|


[Chorus]

"Awit na nananawagan"
e|----------------------------|
B|--6-6-6-6-6-6-6-6-6-6-6-6---|
G|--7-7-7-7-7-7-7-7-7-7-7-7---|
D|--7-7-7-7-7-7-7-7-7-7-7-7---|
A|--5-5-5-5-5-5-5-5-5-5-5-5---|
E|----------------------------|

"baka sakaling napakikinggan"
e|----------------------------|
B|--3-3-3-3-3-3-3-3-3-3-3-3---|
G|--4-4-4-4-4-4-4-4-4-4-4-4---|
D|--4-4-4-4-4-4-4-4-4-4-4-4---|
A|--2-2-2-2-2-2-2-2-2-2-2-2---|
E|----------------------------|

"Pag ibig na palaisipan"
e|--------------------------|
B|--------------------------|
G|--4-4-4-4-4-4-4-4-4-4-4-4-|
D|--5-5-5-5-5-5-5-5-5-5-5-5-|
A|--5-5-5-5-5-5-5-5-5-5-5-5-|
E|--3-3-3-3-3-3-3-3-3-3-3-3-|

"sa kanta na  lang idadaan"
e|---------------------------|
B|---------------------------|
G|--6-6-6-6-6-6-6-6-6-6-6-6--|
D|--7-7-7-7-7-7-7-7-7-7-7-7--|
A|--7-7-7-7-7-7-7-7-7-7-7-7--|
E|--5-5-5-5-5-5-5-5-5-5-5-5--|

pasok
GUITAR 2
e|--------------------------------------------|
B|--9-9-9-9---7-7---9-9-9-9---7-7---9-9---7-7-| (2X)
G|--------------------------------------------|
D|--------------------------------------------|
A|--------------------------------------------|
E|--------------------------------------------|

e|----------------------|
B|--7-7h9-7-7-7h9-7---7-| (2X)
G|------------------7---|
D|----------------------|
A|----------------------|
E|----------------------|

*SAME PATTERN PARA SA SUSUNOD NA LINE

"Nag aabang sa langit, sa mga ulap sumisilip
Sa likod ng mga tala,kahit sulyap lang darna"

VERSE ULIT THEN CHORUS

THEN QUIET PART

GUITAR 1
e|--------0-----0-----0-------------0-----0-----0--------------0-----0-----0--------|
B|-----3----3-----3-----3---3----3----3-----3-----3---3-----3----3-----3-----3----3-|
G|----------------------------------------------------------------------------------|
D|---0--0-----0-----0-----0---------------------------------------------------------|
A|-----------------------------2--2-----2-----2-----2-------------------------------|
E|--------------------------------------------------------3--3-----3-----3-----3----|

e|--------0------3~~--------------|
B|-----3----3----3~~--------------|
G|--------------------------------| 
D|--------------------------------|
A|---0--0-----0-------------------|
E|--------------------------------|

"Tumalon kaya ako sa bangin.."
GUITAR 1
e|------------------------------------------------------------------|
B|--6-6-6-6-6-6-6---3-3-3-3-3-3-3-----------------------------------|
G|--7-7-7-7-7-7-7---4-4-4-4-4-4-4---4-4-4-4-4-4-4---6-6-6-6-6-6-6---|
D|--7-7-7-7-7-7-7---4-4-4-4-4-4-4---5-5-5-5-5-5-5---7-7-7-7-7-7-7---|
A|--5-5-5-5-5-5-5---2-2-2-2-2-2-2---5-5-5-5-5-5-5---7-7-7-7-7-7-7---|
E|----------------------------------3-3-3-3-3-3-3---5-5-5-5-5-5-5---|
   ....... .......

GUITAR 2
e|----------------------------------|
B|----------------------------------|
G|-7-7-7-6-6-6-6-6-9-9-9-9-9-9-9-9--|
D|----------------------------------|
A|----------------------------------|
E|----------------------------------|

"Darating kaya.."

e|---0-----0-----0-----0----0----0-----0-----0-----0----0----0----0-----0----0-----0----0---0---|
B|-----3-----3-----3-----3---3-----3----3-----3-----3----3----3-----3----3-----3-----3----3--3--|
G|----------------------------------------------------------------------------------------------|
D|-0-----0----0-----0-----0---------------------------------------------------------------------| pause
A|-----------------------------2-----2-----2-----2-----2----------------------------------------|
E|--------------------------------------------------------------3------3----3-----3-----3-------|

REPEAT CHORUS THEN REPEAT LAST TWO LINES OF THE CHORUS

END!!

FIRST TAB KO TO KAYA MAY KONTING ERROR SIGURO..
Need a guitar player for the band? Contact nyo me baka pwede me mag-aply.. hehe

PAKI RATE THIS TAB KAMIKAZEE FANATIC HERE..
PA ADD SA FRIENDSTER = friendster@jof328.com
Suggest correction
comments
print report bad tab
4 comments total. Showing first comments.
0 reply
shoyot69 10 May 18, 2006 03:19 AM

nilagnat cguro ang gumawa nito.. mali mali.. 20% ang tama.. ausin mo

0 reply
shoyot69 10 May 18, 2006 03:19 AM

ur tab is sick.. nid medical attention

0 reply
mozartamadeus 10 Apr 12, 2009 10:09 AM

http://www.wikihow.com/Determine-Moral-Principles-Without-Religion
http://www.wikihow.com/Be-a-Ninja

guest
You may want to rate the tab now too:
select rating
Wanna post a correction for this tab? Suggest correction