Oops, an error
Loading. Please wait.

Paano tab

version 1
version 1

Whole song

Interactive

26,878 views 63 this week
2 commentsread comments
1 2 3 4 5
x 6
add to favorites
×
Save as Personal and add changes to this tab that will be seen only by you. Learn more ›
×
You can save this tab as Personal to edit and correct it or add notes. All changes will be seen only by you. Learn more »
launch autoscroll
font size
0
reset
how to read this tab
guitar tuner
edit
Autoscroll
slow
fast
+/-
esc
set tempo
stop
Author
Paano by kamikazee

******SA ORIGINAL NA KANTA PO NILA ITO , HINDI PO SA TOWER SESSIONS*******



[Intro]
C#m 4x
C#m , A , E 4x

e|--------7------------------------------------------|
B|--4h5-4---5-4-0-4-5-4-0-4-5-4-0----5-4-0-4-5-4-0---|
G|---------------------------------------------------|
D|---------------------------------------------------|
A|---------------------------------------------------|
E|---------------------------------------------------|

e|--------7------------------|
B|--4h5-4---5-4-0-4-5-4-0-5--|
G|---------------------------|
D|---------------------------|
A|---------------------------|
E|---------------------------|

[Verse]
A , B , C#m 3x
*SABAY SILA NI JOMAL AT LED*
Jomal part
E -----------------------------------------------------------------|
B ---999-777-555-99-77-55-999-10-10-10-12-12-12-10-10-10-99-77-----|
G -----------------------------------------------------------------|
D --------------------------------------------------------------2--|
A --------------------------------------------------------------2--|
E --------------------------------------------------------------0--|

led part
E ------------------------------------------------|
B --555-444-222-55-44-22-555-777-999-777-55-44----|
G ------------------------------------------------|
D ---------------------------------------------2--|
A ---------------------------------------------2--|
E ---------------------------------------------0--|

JOMAL PART
E-------------------------------------|
B-------------------------------------|
G-----------------------------66--66--|
D-----------------------------66--66--|
A----------------2-7-6-2-7-6--44--44--|
E---0-5-4-0-5-4-----------------------|

LED PART
E --------------- 2x --------|
B ---------------    --------|
G ---------------    -66--66-|
D ---------------    -66--66-|
A ---------------    -44--44-|
E -0-5-4-0-5-4---    --------|

[Chorus]
**KATULAD PO NG INTRO**

REPEAT VERSE

REPEAT CHORUS

[Bridge]
A , B , C#m 4x

ADLIB : 
E , C#m , A , A

JOMAL PART

E -------4---------7-- 6x --------4-------4--7-5-4-5-4---------|
B -0-4-5----5-4-5-----    --0-4-5---5-4-5--------------7-5-4---|
G --------------------    -------------------------------------|
D --------------------    -------------------------------------|
A --------------------    -------------------------------------|
E --------------------    -------------------------------------|

SABAY ULET SILA DTO

JOMAL PART
E -------------555---------- 4x --------|
B -777-555----------77--55--    --------|
G ---------777--------------    -66666--|
D --------------------------    -*****--|
A --------------------------    -44444--|
E --------------------------    --------|

LED
E ------------------------| 4x
B -555-444-000-777-55-44--|
G ------------------------|
D ------------------------|
A ------------------------|
E ------------------------|

repeat chorus :

jomal and led
E -------------|
B -------------|
G -6--------2--|
D -6--------2--|
A -4--6-7-9-0--|
E -------------|


[Chorus 2]

jomal part
E --------4--------7-- 6x --------4-------4--7-5-4-5-4---------|
B -0-4-5----5-4-5-----    --0-4-5---5-4-5--------------7-5-4---|
G --------------------    -------------------------------------|
D --------------------    -------------------------------------|
A --------------------    -------------------------------------|
E --------------------    -------------------------------------|

E -------------555----------| 2x
B -777-555----------77--55--|
G ---------777--------------|
D --------------------------|
A --------------------------|
E --------------------------|

LED *TOWER SESSION VERSION*
E ------------------------| 4x
B -555-444-000-777-55-44--|
G ------------------------|
D ------------------------|
A ------------------------|
E ------------------------|

E --12-12-12-11-11-11----------14-14-14-12-12-11-11--| 2x
B --------------------12-12-12-----------------------|
G ---------------------------------------------------|
D ---------------------------------------------------|
A ---------------------------------------------------|
E ---------------------------------------------------|


[Outro]
A 3x . C#m 12x

E ---------| 4x
B ---------|
G --13-13--|
D --*--*---|
A --11-11--|
E ---------|

ADD ME SA FB . facebook.com/mjenunez



************************************

| h  Hammer-on
| *  Natural harmonic

************************************

            
            
Suggest correction
Creating personal tab
Creating personal tab
You can edit any tab online and save it as your Personal.

You can edit, replace or remove any tab part or add personal notes – all changes will be seen only by you.

Personal tabs can be accessed anytime from any device, even offline.
Learn more »
comments
print report bad tab
2 comments total.
0 reply
bembem_cruz 10 May 19, 2013 11:35 PM

medyo malayo pero papunta na

+1 reply
mceeyepz 10 Dec 07, 2013 09:53 PM

okay na sana.

E -------4---------7-- 6x --------4-------4--7-5-4-5-4---------|
B -0-4-5----5-4-5----- --0-4-5---5-4-5--------------7-5-4---|
G -------------------- -------------------------------------|
D -------------------- -------------------------------------|
A -------------------- -------------------------------------|
E -------------------- -------------------------------------|

tapos yung part na to kay Jomal dapat ganito.

JOMAL PART
E -------------777---------- 4x --------|
B -999-777----------99--77-- --------|
G ---------999-------------- -66666--|
D -------------------------- -*****--|
A -------------------------- -44444--|
E -------------------------- --------|

guest
You may want to rate the tab now too:
select rating
Wanna post a correction for this tab? Suggest correction