Oops, an error
Loading. Please wait.

Seksi Seksi Bass Tab

version 1
version 1

Whole song

Interactive

14,503 views 60 this week
no commentswrite comment
1 2 3 4 5
2 more votes to show rating
add to favorites
launch autoscroll
font size
0
reset
guitar tuner
Autoscroll
slow
fast
+/-
esc
set tempo
stop
Help us to improve Ultimate-Guitar.com Take our survey!
×
Author
[Intro]
G|------------------------------------------------------------------------------------|
D|------------------------------------------------------------------------------------|
A|-------------------------------------------------------------------3333-4444--------|
E|-3-3-4-5---3-3-4-5---3-3-4-5-3-3-4-5---3-3-4-5-3-3-4-5------------------------------|

[Intro Part 2]
G|-------------------------------------------------------------|
D|------------------------------(x3)---------------------------|
A|-------------5-3-5-4---2-5~-----------33-4444----------------|
E|-0-0-3-4-5-------------------------00----------3333----------|

[Verse 1]
G|---------------------------------------------|
D|----------------------------------|-=-=-=----|(x3)
A|------------5-4------------------------------|
E|--3-3-4-5------5-4---3-3-4-5-----------------|

[Refrain]
G|--------------------------------------------|
D|--------------------------------------------|
A|----------------------3333-4444-------------|
E|-3-3-4-5---3-3-4-5--------------------------|

[Chorus]
G|-------------------------------------------------------------|
D|------------------------------(x3)---------------------------|
A|-------------5-3-5-4---2-5~-----------33-4444----------------|
E|-0-0-3-4-5-------------------------00----------3333----------|

[Verse 2]
G|---------------------------------------------|
D|----------------------------------|-=-=-=----|(x3)
A|------------5-4------------------------------|
E|--3-3-4-5------5-4---3-3-4-5-----------------|

[Refrain]
G|--------------------------------------------|
D|--------------------------------------------|
A|----------------------3333-4444-------------|
E|-3-3-4-5---3-3-4-5--------------------------|

[Chorus]
G|-------------------------------------------------------------|
D|------------------------------(x3)---------------------------|
A|-------------5-3-5-4---2-5~-----------33-4444----------------|
E|-0-0-3-4-5-------------------------00----------3333----------|

[Bridge]
G|---------------------------------|
D|----------------------|-=-=-=----|(x3)
A|----------------3-5--------------|
E|-5-3-2-3-3-2---------------------|

G|-----------------------------------|
D|-----------------------------------|
A|---------------------33-55---------|
E|-5555-3333-2222--------5~----------|

(After Adlib)
G|-----------------------|
D|------------|-=-=-=----|(x4)
A|-----------------------|
E|-3-3-4-5---------------|

[Refrain]
G|--------------------------------------------|
D|--------------------------------------------|
A|----------------------3333-4444-------------|
E|-3-3-4-5---3-3-4-5--------------------------|

[Chorus]
G|-------------------------------------------------------------|
D|------------------------------(x3)---------------------------|
A|-------------5-3-5-4---2-5~-----------33-4444----------------|
E|-0-0-3-4-5-------------------------00----------3333----------|


************************************

| ~  Vibrato

************************************
Suggest correction
Give kudos to tab author, rate the tab!
1 2 3 4 5
comments
print report bad tab
guest
You may want to rate the tab now too:
select rating
Wanna post a correction for this tab? Suggest correction