Oops, an error
Loading. Please wait.

Seksi Seksi Tab

version 1
version 1

Whole song

Interactive

80,155 views 537 this week
11 commentsread comments
1 2 3 4 5
accurate
x 19
add to favorites
launch autoscroll
font size
0
reset
how to read this tab
guitar tuner
Tab Pro tools
  • play this tab
  • loop segment
  • change instrument
  • show fretboard
  • metronome
×
Best way to learn
"Seksi Seksi"
Autoscroll
slow
fast
+/-
esc
set tempo
stop
Contributor
Song:Seksi Seksi
Album:Maharot
Artist:Kamikazee
Date Tabbed:February,2006
Guitar Tabber:Ryan Manongdo/16/m/Montalban Rizal
              no_falter0x@yahoo.com(Friendster&YM)

For your questions or suggestions,just post in friendster comment,PM or mail me.

Gtr.Legends:
. - palm muting
~ - let it ring
/ - slide
p - pull-off

Gtr.Tuning:Standard(Normal)

Intro prt.1:
e|---------             -------------------------------|
B|--------- Get the     -------------------------------|
G|--------- timing then -------------------------------|
D|-55-6-7--             -55-6-7--55-6-7--5555-6-6666---|
A|-55-6-7--             -55-6-7--55-6-7--3333-0-4444---|
E|-33-4-5--             -33-4-5--33-4-5----------------|

Intro prt.2:
e|----------------------------      ---------------------|
B|---------------------------- 3x   ---------------------|
G|---------------------------- Then ---------------------|
D|-22-5-6-7--7-5-7-6--4-5555--      -22-55--666-0-5555---|
A|-22-5-6-7--5-3-5-4--2-5555--      -22-55--444-0-5555---|
E|-00-3-4-5-------------3333--      -00-33------0-3333---|
                                     .. ..    

Verse 1:36,24,36 yan ang sukat...
e|----------------------------------------|
B|----------------------------------------|
G|------------------------------9-9-9-9---| 2x
D|-55-6-7---7-6--7-6---55-6-7-------------|
A|-55-6-7---5-4--7-6---55-6-7-------------|
E|-33-4-5--------5-4---33-4-5-------------|
            . .  . .            . . . .

Pre-Chorus 1:Excuse me miss...
e|-----------------------------|
B|-----------------------------|
G|-----------------------------|
D|-55-6-7--55-6-7--555-6-666---|
A|-55-6-7--55-6-7--333-0-444---|
E|-33-4-5--33-4-5--------------|

Chorus:Pasensiya kana miss...
Play Intro prt.2

Verse 2:1,4,3,4,4 I love you...
Play Verse 1

Repeat Pre-Chorus 2:Parang skin ng bay...
Play Pre-Chorus 1

Repeat Chorus:

Bridge prt.1:Seksi seksi...
e|--------------------      ---------------------------|
B|--------------------      ---------------------------|
G|-------------------- 3x   ---------------------------|
D|-7--5-4-5-4--5-5/7-- Then -777-555-444-555-55-7-7~---|
A|-7--5-4-5-4--5-3/5--      -777-555-444-555-33-5-7~---|
E|-5--3-2-3-2--3------      -555-333-222-333------5~---|
   .  . . . .  .

Bridge prt.2:
Gtr.1:Play this also during gtr.2 adlib
e|-----------------------------------|
B|-----------------------------------|
G|-----------------------------------|
D|-----------------------------------|
A|-2/7---7b---7b--7b---7b-7b-7b-7b---|
E|-----0----0---0---0----------------|

Adlib:Play this really fast...
Gtr.2
e|-12b-12b-12b-12b-12b-12b--12-14p12-12-14p12-12-14p12-12-14p12-17b----
B|---------------------------------------------------------------------
G|---------------------------------------------------------------------
D|---------------------------------------------------------------------
A|---------------------------------------------------------------------
E|---------------------------------------------------------------------

-17-18-17-18-17-18-17-18--17-18-17---14-15-14-15-14-15-14-15--17-18-17-18-17-19b----|
------------------------------------------------------------------------------------|
------------------------------------------------------------------------------------|
------------------------------------------------------------------------------------|
------------------------------------------------------------------------------------|
------------------------------------------------------------------------------------|

Gtr.1:
e|---------------------------------      ------------------------------------------|
B|---------------------------------      ------------------------------------------|
G|--------------------------------- 3x   ------------------------------------------|
D|--------------------------------- Then -------------------------------------7~---|
A|---7b--6b--5b--4b---3b---2b--1b--      ---7b---6b---5b---4b---3b---2b---1b--7~---|
E|-0---0---0---0----0----0----0----      -0----0----0----0----0----0----0-----5~---|

--------------------------------------------------------------17-19-17-19-17-19--------|
1717-1616-1515-1414-1313-1212--1717-1616-1515-1414-1313-1212--17-19-17-19-17-19--17~---|
---------------------------------------------------------------------------------------|
---------------------------------------------------------------------------------------|
---------------------------------------------------------------------------------------|
---------------------------------------------------------------------------------------|

Bridge prt.3:
Snare Drum then

Hey miss,gusto mo bang...
e|----------|
B|----------|
G|----------|
D|-55-6-7---|
A|-55-6-7---|
E|-33-4-5---|

Parang skin ng baby...
e|-----------------------------|
B|-----------------------------|
G|-----------------------------|
D|-55-6-7--55-6-7--555-6-666---|
A|-55-6-7--55-6-7--333-0-444---|
E|-33-4-5--33-4-5--------------|

Repeat Chorus:

Outro:Repeat Bridge prt.1

Last Chord:
e|-0~---|
B|-0~---|
G|-0~---|
D|-7~---|
A|-7~---|
E|-5~---|

End...


Seksi Seksi Lyrics:

Verse 1:
36,24,36 yan ang sukat ng makinis mong yes katawan
Mistulang Coca Cola yeah(Yeah)
Pag-nakabikini mamamiya labahita ulala

Pre-Chorus 1:
Lahat kami ay nabighani mo
Excuse me miss anong pangalan mo

Chorus:
Pasensiya kana miss kung di ko maiwasan
Ang tipo mo kasi ay kay sarap titigan
Pasensiya kana miss pero di ko mapigilan
Ang seksi seksi mo,ohh yes nabubulunan

Verse 2:
1,4,3,4,4 I love you very much(I love you very much)
Nag-pupumiglas,gustong ilabas
3,5,2,5,4 you stole my heart away
Valentines day ang feeling everyday

Pre-Chorus 2:
Ang iyong mga pisngi na kay sarap himasin
Parang skin ng baby na may konting pulbo

Repeat Chorus:

Bridge prt.1:
Seksi seksi,seksi mo(Yeah alright)
Seksi,seksi,seksi,seksi ang seksi mo

Bridge prt.2:
Hey miss,gusto mo bang sumama sa akin
May alam ako malapit lang jan sa may Cubao

Repeat Pre-Chorus 2:
Repeat Chorus:
Repeat Bridge prt.1:

comments
print report bad tab
11 comments total. Showing first comments.
0 reply
BrylezDgreaT wrote on August 13 2006, 09:29 am

parang may kulang sa last part ng lead d ko lng ma figure kung ano yun, pero nice tab ~_^

0 reply
Crainte Vomir wrote on September 8 2006, 08:38 am

ung solo nlng cguro ung my prob.. pro aus na. ganda.

0 reply
ganda_qw wrote on October 8 2006, 12:15 am

aq itong song n i2!!gling ng solo..nce tabbb

I want to post or [tab]
guest
You may want to rate the tab now too:
select rating
Please do not post tabs as comments. Select "correction" instead!