Oops, an error
Loading. Please wait.

Seksi Seksi Tab

version 2
version 2

Whole song

Interactive

19,180 views 51 this week
1 commentread comment
1 2 3 4 5
1 last vote to show rating
add to favorites
launch autoscroll
font size
0
reset
how to read this tab
guitar tuner
Autoscroll
slow
fast
+/-
esc
set tempo
stop
Help us to improve Ultimate-Guitar.com Take our survey!
×
Author
Difficulty
intermediate
Seksi Seksi 
by : Kamikazee 
tabbed by : Llew Kent Parmis-Lugo 

[Intro]
e|------|
B|------|
G|------|(5x po cguro to)
D|-5567-|
A|-5567-|
E|-3345-|

e|-------|
B|-------|
G|-------|
D|-55566-|
A|-33344-|
E|-------|

e|-----------|
B|- ---------|
G|-----------|
D|-255677676-|(repeat 3x)
A|-255675476-|
E|-00345--54-|

    xx xx
e|---------------|
B|---------------|
G|---------------|
D|-------55-6666-|
A|-22-22-33-4444-|
E|-00-00---------|

[Verse]
e|------------------------|
B|-------------------5555-|
G|------------------------|
D|-5567-7s6-7s5-5567------|(repeat 2x)
A|-5567-5s4-7s5-5567------|
E|-3345-----5s3-3345------|

e|----------------------|
B|----------------------|
G|----------------------|
D|-5567-55565555-333344-|
A|-5567-55565555-333344-|
E|-3345-33343333--------|

[Chorus]
e|-----------|
B|-----------|
G|-----------|
D|-225677676-|(3x)
A|-225675476-|
E|-00345--54-|

e|--------------|
B|--------------|
G|--------------|
D|-22x22x666666-|
A|-22x22x444444-|
E|-00x00x-------|

[Verse]
e|------------------------|
B|-------------------5555-|
G|------------------------|
D|-5567-7s6-7s5-5567------|(repeat 2x)
A|-5567-5s4-7s5-5567------|
E|-3345-----5s3-3345------|

e|----------------------|
B|----------------------|
G|----------------------|
D|-5567-55565555-333344-|
A|-5567-55565555-333344-|
E|-3345-33343333--------|

[Chorus]
e|-----------|
B|-----------|
G|-----------|
D|-225677676-|(3x)
A|-225675476-|
E|-00345--54-|

e|--------------|
B|--------------|
G|--------------|
D|-22x22x666666-|
A|-22x22x444444-|
E|-00x00x-------|

[Post-Chorus]
 "seksi, seksi... seksi mo !" 
e|-----------|
B|-----------|
G|-----------|
D|-75454s557-|(3x)
A|-75454s535-|
E|-53232s3---|

     xx xx xx  xx xx xx
e|----------------------|
B|----------------------|
G|----------------------|
D|-7--5--4--55--4--5--7-|
A|-7--5--4--55--4--5--7-|(hold, let it fade)
E|-5--3--2--33--2--3--5-|

 [Lead Solo]
 (ginagamitan ko to ng "delay" pra mas maganda pakinggan) 
e|--------------------|
B|--------------------|
G|--------------------|
D|--------------------|
A|-7b(i.timing mo lng)|
E|--------------------|

e|-12--12--12--12--12--12--12--12-15-12--12-15-12-- + -12t15r12----|
B|-16b-16b-16b-16b-16b-16b-16b---------15--------15 + -------------|
G|------------------------------------------------- + -------------|(6x)
D|------------------------------------------------- + -------------|
A|------------------------------------------------- + -------------|
E|------------------------------------------------- + -------------|

e|-15t19r15-|
B|----------|
G|----------|(5x)
D|----------|
A|----------|
E|----------|

e|-15t18r15-|
B|----------|
G|----------|(5x)
D|----------|
A|----------|
E|----------|

e|-14t17r14-|
B|----------|
G|----------|(5x)
D|----------|
A|----------|
E|----------|

e|-12t15r12-|
B|----------|
G|----------|(5x)
D|----------|
A|----------|
E|----------|

e|-16t19r16-|
B|----------|
G|----------|(5x)
D|----------|
A|----------|
E|----------|

e|---------------------12s21- + -------------------------------------|
B|-16s15s14s13s12s11s10------ + -17-17-17-17-16-16-16-16-15-15-15-15-|
G|--------------------------- + -------------------------------------|
D|--------------------------- + -------------------------------------|
A|--------------------------- + -------------------------------------|
E|--------------------------- + -------------------------------------|

e|-14-14-14-14-13-13-13-13-12-12-12-12-13-13-|(2x)
B|-------------------------------------------|
G|-------------------------------------------|
D|-------------------------------------------|
A|-------------------------------------------|
E|-------------------------------------------|

e|------------14t17-15t19----------------------|
B|-15t17-16t19-----------17s16s15s14s13s12s15b-|
G|---------------------------------------------|
D|---------------------------------------------|
A|---------------------------------------------|
E|---------------------------------------------|

[Intro]
e|------|
B|------|
G|------|(5x po cguro to)
D|-5567-|
A|-5567-|
E|-3345-|

"ang 'yong mga pisngi..."

e|----------------------|
B|----------------------|
G|----------------------|
D|-5567-55565555-333344-|
A|-5567-55565555-333344-|
E|-3345-33343333--------|

[Chorus]
e|-----------|
B|-----------|
G|-----------|
D|-225677676-|(3x)
A|-225675476-|
E|-00345--54-|

e|--------------|
B|--------------|
G|--------------|
D|-22x22x666666-|
A|-22x22x444444-|
E|-00x00x-------|

[Post-Chorus]
 "seksi, seksi... seksi mo !" 
e|-----------|
B|-----------|
G|-----------|
D|-75454s557-|(3x)
A|-75454s535-|
E|-53232s3---|

     xx xx xx  xx xx xx
e|----------------------|
B|----------------------|
G|----------------------|
D|-7--5--4--55--4--5--7-|
A|-7--5--4--55--4--5--7-|(hold, let it fade)
E|-5--3--2--33--2--3--5-|



************************************

b - bend
x - palm mute
r - release
t - tap
s - slide

************************************
Suggest correction
Give kudos to tab author, rate the tab!
1 2 3 4 5
comments
print report bad tab
1 comment total.
0 reply
gurlhunter 10 Aug 19, 2014 01:00 AM

Lack of accuracy.

guest
You may want to rate the tab now too:
select rating
Wanna post a correction for this tab? Suggest correction