Oops, an error
Loading. Please wait.

Tagpuan Tab

version 1
version 1

Whole song

Interactive

137,420 views 168 this week
10 commentsread comments
1 2 3 4 5
x 22
add to favorites
launch autoscroll
font size
0
reset
how to read this tab
guitar tuner
Autoscroll
slow
fast
+/-
esc
set tempo
stop
Help us to improve Ultimate-Guitar.com Take our survey!
×
Author
Difficulty
intermediate
-----------------------------------------------------------------
                       TAGPUAN - Kamikazee
-----------------------------------------------------------------
Tabbed by:erolcayetano :}
Email:erollovesmemi@gmail.com

Tuning: STANDARD(EADGBe)

'Di pa kumpleto ito pero sa tingin ko eto na yun. Kayo na bahala. 
Kung may kulang, dagdagan nyo at pakirate naman 'tong tab ko oh. 
Pati pala yung iba kong tabs. Thanks!


[Intro]

 Guitar 1           Guitar 2
e|----------------| e|----------------------------------|
B|----------------| B|----------------------------------|
G|----------------| G|----------------------------------|
D|---7~-----------| D|---0-9-7-0-5-4-0-2-4-0-5-4-0-2-4--|
A|---5~-5~-9~-7~--| A|----------------------------------|
E|------3~-7~-5~--| E|----------------------------------|
(1x)               (4x)

 0:14
 Guitar 1              Guitar 2
e|-------------------| e----------------------------------|----------------------------------|
B|-------------------| B----------------------------------|----------------------------------|
G|-------------------| G----------------------------------|----------------------------------|
D|---7---------------| D---0-9-7-0-5-4-0-2-4-0-5-4-0-2-4--|--0-7-9-0-5-7-0-4-5-0-2-4-0-2-4-0-|
A|---5---5---9---5---| A----------------------------------|----------------------------------|
E|-------3---7---3---| E----------------------------------|----------------------------------|
(1x)                   (3x)                                   (1x) *parang 'Hand of Blood'


[Verse]

 Guitar 1
e|---------0-----------------0---------------0-----------------0----------|
B|-----3-----3---3-------3-----3---3-----3-----3---3-------3-----3---3----|
G|-------2-----2-----------2-----2---------2-----2-----------2-----2------|
D|------------------------------------------------------------------------| 
A|--------------------------------------0---------------0-----------------| 
E|---3----------------3---------------------------------------------------|

 Guitar2
e|-------------| 
B|---3~--------| 
G|---0~---2~---| 
D|--------2~---| (2x)
A|--------0~---| 
E|---3~--------|


[Pre-Chorus]

 Guitars 1 & 2
e|--------------------------------------| 
B|--------------------------------------| 
G|-------------------4444444444444444---| 
D|-------------------2222222222222222---| 
A|---5555555577777777-------------------| 
E|---3333333355555555-------------------|


[Chorus]

 Guitars 1 & 2
e|-------------------------------------------------------------------------|
B|-------------------------------------------------------------------------|
G|-------------------44444444---------------------------44444444-----------|
D|---77777777--------22222222-----------77777777--------22222222-----------|
A|---5555555555555555--------55555555---5555555555555555--------77777777---|
E|-----------33333333--------33333333-----------33333333--------55555555---|

 LAST NOTE before VERSE
e|-------| 
B|---3~--| 
G|---0~--|
D|-------|
A|-------| 
E|---3~--|


[Repeat Verse/Pre-chorus/Chorsu]

 02:23 (Guitar 1 & 2)
e|---------------------| 
B|---------------------| 
G|--------7------------| 
D|--------5------------| 
A|---99-7---5-55-9\7---| 
E|---77-5---3-33-7\5---|

 02:26(Guitars 1 & 2)
e|--------|      e----------------------------------|
B|--------|      B----------------------------------|
G|--------|      G----------------------------------|
D|---7~---| (2x) D---0-9-7-0-5-4-0-2-4-0-5-4-0-2-4--| (2x)
A|---5~---|      A----------------------------------|
E|--------|      E----------------------------------|

 02:33(Guitar 1)
e|---------------------------------------------------------------------|           
B|---------------------------------------------------------------------|      
G|---------------------------------------------------------------------|      
D|---------------------------------------------------------------------| (2x) 
A|---999999999999999977777777777777775555555555555555555555555555555---|      
E|---777777777777777755555555555555553333333333333333333333333333333---|      

 (Guitar 2)
e|----------------------------------|
B|----------------------------------|
G|----------------------------------|
D|---0-9-7-0-5-4-0-2-4-0-5-4-0-2-4--| (8x)
A|----------------------------------|
E|----------------------------------|

 03:02
e|-----------------------------------------------| 
B|-----------------------------------------------| 
G|-----------------------------------------------| 
D|-----------------------------------------------| (2x)
A|---5-5-5-5-5-5-5-5-5-5-7-7-7-7-7-7-7-7-7-7-7---| 
E|---3-3-3-3-3-3-3-3-3-3-5-5-5-5-5-5-5-5-5-5-5---|


[Repeat Pre-chorus/Chorus]

 03:57
e|-----------------------| 
B|-----------------------| 
G|---------7-------------| 
D|---------5-------------| 
A|---9-9-7---5-5-5-9\7---| 
E|---7-7-5---3-3-3-7\5---|


[Repeat intro]


[Ending]

e|---------| 
B|---------| 
G|---------| 
D|---------| 
A|---5-5---| 
E|---3-3---|



************************************

| \  Slide down
| ~  Vibrato 

************************************
Suggest correction
comments
print report bad tab
10 comments total. Showing first comments.
+3 reply
holymask16 10 Jan 20, 2012 05:28 AM

haha ayos!
tgl ko na tong hinihintay =))
salamat :D

-1 reply
erolcayetano 166 Jan 20, 2012 02:57 PM

@holymask16 ASTIG! Share mo!

0 reply
reverie312 52 Mar 14, 2012 12:32 AM

Sir may part na nagpaplucking si Led sa "Pre Chorus"

PRE-CHORUS
Guitars 1 & 2
e--------------------------------------|
B--------------------------------------|
G-------------------4444444444444444---|
D-------------------2222222222222222---|
A---5555555577777777-------------------|
E---3333333355555555-------------------|

Dito yun. Mahina lang pero importante sa kanta. Pakikapa naman sir. Di ko kasi kaya eh. Thanks!!!

guest
You may want to rate the tab now too:
select rating
Wanna post a correction for this tab? Suggest correction