Oops, an error
Loading. Please wait.

Altergang Tab

version 1
version 1

Whole song

Interactive

19 views 1 this week
no commentswrite comment
1 2 3 4 5
3 more votes to show rating
add to favorites
launch autoscroll
font size
0
reset
how to read this tab
guitar tuner
Autoscroll
slow
fast
+/-
esc
set tempo
stop
Help us to improve Ultimate-Guitar.com Take our survey!
×
Author
Difficulty
Tuning
novice
D G C F A D
Kampfar - Altergang
Mare (2011)

[Part 1]

D|-------------------------|-----------------|-------------------------|-------------------------|
A|-------------------------|-----------------|-------------------------|-------------------------|
F|-------------------------|-----------------|-------------------------|-------------------------|
C|-------------------------|-----------------|-------------------------|-------------------------|
G|-10-10-10-10-10-10-10-10-|-7-7-7-7-7-7-7-7-|-10-10-10-10-10-10-10-10-|-12-12-12-12-12-12-12-12-|
D|-0--0--0--0--0--0--0--0--|-0-0-0-0-0-0-0-0-|-8--8--8--8--8--8--8--8--|-8--8--8--8--8--8--8--8--|

D|-------------------------|-------------------------|-------------------------|-------------------------|
A|-------------------------|-------------------------|-------------------------|-------------------------|
F|-------------------------|-------------------------|-------------------------|-------------------------|
C|-------------------------|-------------------------|-------------------------|-------------------------|
G|-11-11-11-11-11-11-11-11-|-11-11-11-11-11-11-11-11-|-11-11-11-11-11-11-11-11-|-11-11-11-11-11-11-11-11-|
D|-9--9--9--9--9--9--9--9--|-9--9--9--9--9--9--9--9--|-9--9--9--9--9--9--9--9--|-9--9--9--9--9--9--9--9--|

[Part 2]

D|-------------------------|-------------------------|-------------------------|---------------------|
A|-------------------------|-------------------------|-------------------------|---------------------|
F|-------------------------|-------------------------|-------------------------|---------------------|
C|-------------------------|-------------------------|-14-14-14-14-------------|---------------------|
G|-11-11-11-11-11-11-11-11-|-12-12-12-12-11-11-11-11-|-11-11-11-11-11-11-11-11-|-7-7-7-7-12-12-12-12-|
D|-9--9--9--9--9--9--9--9--|-9--9--9--9--9--9--9--9--|-9--9--9--9--9--9--9--9--|-5-5-5-5-10-10-10-10-|

[Part 3]

D|-----------------|-------------------|-----------------|-----------------|
A|-----------------|-------------------|-----------------|-----------------|
F|-----------------|-------------------|-----------------|-----------------|
C|-----------------|-------------------|-----------------|-----------------|
G|-----------------|-12-------11-------|-----------------|-6-------7-------|
D|-9-9-9-9-9-9-9-9-|----9-9-9----9-9-9-|-5-5-5-5-5-5-5-5-|---5-5-5---5-5-5-|

D|-----------------|-----------------|-----------------|-----------------|
A|-----------------|-----------------|-----------------|-----------------|
F|-----------------|-----------------|-----------------|-----------------|
C|-----------------|-----------------|-----------------|-6-------7-------|
G|-----------------|-6-------4-------|-----------------|-----------------|
D|-4-4-4-4-4-4-4-4-|---4-4-4---4-4-4-|-5-5-5-5-5-5-5-5-|---5-5-5---5-5-5-|

[Part 4]

D|-----------------|-----------------|
A|-----------------|-----------------|
F|-----------------|-----------------|
C|-----------------|-5-6-6-6-5-6-6-6-|
G|-7-7-7-7-5-5-5-5-|-3-4-4-4-3-4-4-4-|
D|-5-5-5-5-3-3-3-3-|-----------------|


Order:
Part 1 x4
Part 2 x4
Part 3 x3
Part 2 x4
Part 4 x4
Suggest correction
Give kudos to tab author, rate the tab!
1 2 3 4 5
comments
print report bad tab
guest
You may want to rate the tab now too:
select rating
Wanna post a correction for this tab? Suggest correction