Oops, an error
Loading. Please wait.

Volvevers Bass Tab

version 1
version 1

Whole song

Interactive

1 view 1 this week
no commentswrite comment
1 2 3 4 5
3 more votes to show rating
add to favorites
launch autoscroll
font size
0
reset
guitar tuner
Autoscroll
slow
fast
+/-
esc
set tempo
stop
Help us to improve Ultimate-Guitar.com Take our survey!
×
Author
Difficulty
Tuning
novice
D G C F A D
Kampfar - Volvevers
Mare (2011)

[Part 1]

F|--------------|--------------|
C|--------------|--------------|
G|-0--2--3--0-2-|-3--0-2-3-----|
D|--------------|-----------3--|

[Part 2]

F|-----------------|---------------|-----------------|-----------------|
C|-----------------|---------------|-----------------|-----------------|
G|-0-0-0-0-0-0-0-0-|-0-0-0-0-8---8-|-0-0-0-0-0-0-0-0-|-0-0-0-0-5---5---|
D|-----------------|---------------|-----------------|-----------------|


[Part 3]

F|-----------------|-----------------|-----------------|-----------------|
C|-----------------|-----------------|-----------------|-----------------|
G|-----------------|-5-5-5-5-5-5-5-5-|-----------------|-----------------|
D|-1-1-1-1-1-1-1-1-|-----------------|-5-5-8-8-5-5-5-5-|-5-5-5-5-5-5-5-5-|

[Part 4]

F|---------------------------------|---------------------------------|
C|---------------------------------|---------------------------------|
G|-0-0-0-0-2-2-2-2-3-3-3-3-0-0-2-2-|-3-3-3-3-0-0-2-2-3-3-3-3---------|
D|---------------------------------|-------------------------3-3-3-3-|

[Part 5]

F|---------------------------------|---------------------------------|
C|---------------------------------|---------------------------------|
G|-8-8-8-8-8-8-8-8-8-8-8-8-8-8-8-8-|-5-5-5-5-5-5-5-5-5-5-5-5-5-5-5-5-|
D|---------------------------------|---------------------------------|

F|---------------------------------|---------------------------------|
C|---------------------------------|---------------------------------|
G|-0-0-0-0-3-3-3-3-0-0-0-0-0-0-0-0-|-0-0-0-0-0-0-0-0-0-0-0-0-0-0-0-0-|
D|---------------------------------|---------------------------------|

F|---------------------------------|-----------------------------------------|
C|---------------------------------|-----------------------------------------|
G|-8-8-8-8-8-8-8-8-8-8-8-8-8-8-8-8-|-10-10-10-10-10-10-10-10-8-8-8-8-8-8-8-8-|
D|---------------------------------|-----------------------------------------|

F|---------------------------------|---------------------------------|
C|---------------------------------|---------------------------------|
G|-7-7-7-7-3-3-3-3-0-0-0-0-0-0-0-0-|-0-0-0-0-0-0-0-0-0-0-0-0-0-0-0-0-|
D|---------------------------------|---------------------------------|

[Part 6]

F|-----------------|-------------------|
C|-----------------|-------------------|
G|-----7---8-------|-10-10-------------|
D|-0-----------0---|-------0---5/6-6-6-|

[Part 7]

F|-------------|-------------|-------------|---------------------|
C|-------------|-------------|-------------|---------------------|
G|-------------|-------------|-------------|---------------------|
D|-0---5-6-6-6-|-0---1-3-3-3-|-0---5-6-6-6-|-0---1-3-3-3-6---6---|

[Part 8]

F|-----------------|-----------------|
C|-----------------|-----------------|
G|-3-3-3-3-3-3-3-3-|-1-1-1-1-1-1-1-1-|
D|-----------------|-----------------|

[Part 9]

F|-------------|-------------|-------------|-------------|
C|-------------|-------------|-------------|-------------|
G|-------------|-------------|-------------|-------------|
D|-0---5-6-6-6-|-0---1-3-3-3-|-0---5-6-6-6-|-0---1-3-3-3-|

[End]

F|------|
C|------|
G|------|
D|-0----|


Order:
Part 1 x8
Part 2 x2
Part 1 x3
Part 3 x2
Part 4 x4
Part 5
Part 6 x7
Part 7 x2
Part 8
Part 9
Part 8
Part 9
Part 8
Part 6
End


************************************

| /   Slide up

************************************
Suggest correction
Give kudos to tab author, rate the tab!
1 2 3 4 5
comments
print report bad tab
guest
You may want to rate the tab now too:
select rating
Wanna post a correction for this tab? Suggest correction