Oops, an error
Loading. Please wait.

Volvevers Tab

version 1
version 1

Whole song

Interactive

7 views 1 this week
no commentswrite comment
1 2 3 4 5
3 more votes to show rating
add to favorites
launch autoscroll
font size
0
reset
how to read this tab
guitar tuner
Autoscroll
slow
fast
+/-
esc
set tempo
stop
Help us to improve Ultimate-Guitar.com Take our survey!
×
Author
Difficulty
Tuning
novice
D G C F A D
Kampfar - Volvevers
Mare (2011)

[Part 1]

D|---------------|----------------|
A|---------------|----------------|
F|---------------|----------------|
C|-7--9--10--7-9-|-10--7-9-10--5--|
G|-7--7--7---7-7-|-7---7-7-7---7--|
D|---------------|----------------|

[Part 2]

D|---------|-----------|---------|-----------|
A|---------|-----------|---------|-----------|
F|---------|-----------|---------|-----------|
C|-7-------|-T---7--7--|-7-------|-T---3--3--|
G|-7-------|-T---8--8--|-7-------|-T---5--5--|
D|---------|-----------|---------|-----------|

[Part 3]

D|-----------|----------|---------|---------|
A|-----------|----------|---------|---------|
F|-----------|----------|---------|---------|
C|-7---10--9-|-7---5--3-|-7-------|-T-------|
G|-7---7---7-|-7---5--5-|-7-------|-T-------|
D|-----------|----------|---------|---------|

[Part 4]

D|---------|----------|----------|----------|
A|---------|----------|----------|----------|
F|---------|----------|----------|----------|
C|-7-------|-3--------|-7--------|-T--------|
G|-8-------|-5--------|-7--------|-T--------|
D|---------|----------|-5--------|-T--------|

[Part 5]

D|-------------------------------------|---------------------------------|
A|-------------------------------------|---------------------------------|
F|-------------------------------------|---------------------------------|
C|-7-7-7-7-7-7-7-7-10-10-10-10-9-9-9-9-|-7-7-7-7-7-7-7-7-5-5-5-5-3-3-3-3-|
G|-7-7-7-7-7-7-7-7-7--7--7--7--7-7-7-7-|-7-7-7-7-7-7-7-7-5-5-5-5-5-5-5-5-|
D|-------------------------------------|---------------------------------|

D|-------------------------------------|-----------------------------------------|
A|-------------------------------------|-----------------------------------------|
F|-------------------------------------|-----------------------------------------|
C|-7-7-7-7-9-9-9-9-10-10-10-10-7-7-9-9-|-10-10-10-10-7-7-9-9-10-10-10-10-5-5-5-5-|
G|-7-7-7-7-7-7-7-7-7--7--7--7--7-7-7-7-|-7--7--7--7--7-7-7-7-7--7--7--7--7-7-7-7-|
D|-------------------------------------|-----------------------------------------|

[Part 6]

D|-------------|-----------------|
A|----5--6-----|-8-8-------------|
F|----4--5-----|-7-7-------------|
C|----2--3-----|-5-5-----7/8-8-8-|
G|-------------|-----2---7/8-8-8-|
D|-0--------0--|-----0---5/6-6-6-|

[Part 7]

D|-------------|-------------|-------------|---------------------|
A|-------------|-------------|-------------|---------------------|
F|-------------|-------------|-------------|---------------------|
C|-------------|-------------|-------------|---------------------|
G|-2---7-8-8-8-|-2---3-5-5-5-|-2---7-8-8-8-|-2---3-5-5-5-8---8---|
D|-0---5-6-6-6-|-0---1-3-3-3-|-0---5-6-6-6-|-0---1-3-3-3-6---6---|

[Part 8]

D|-----------------|-----------------|
A|-----------------|-----------------|
F|-----------------|-----------------|
C|---3-2---3-2-----|---3-2---3-2-----|
G|-3-----3-------3-|-1-----1-------1-|
D|-----------------|-----------------|

[Part 9]

D|-------------|-------------|-------------|-------------|
A|-------------|-------------|-------------|-------------|
F|-------------|-------------|-------------|-------------|
C|-------------|-------------|-------------|-------------|
G|-2---7-8-8-8-|-2---3-5-5-5-|-2---7-8-8-8-|-2---3-5-5-5-|
D|-0---5-6-6-6-|-0---1-3-3-3-|-0---5-6-6-6-|-0---1-3-3-3-|

[End]

D|-------|
A|-------|
F|-------|
C|-------|
G|-2-----|
D|-0-----|


Order
Part 1 x4
Part 2 x2
Part 3 x2
Part 4 x2
Part 5 x2
Part 4 x2
Part 6 x8
Part 7 x2
Part 8
Part 6 x4
Part 7 x2
Part 8
Part 9
Part 8
Part 9
Part 8
Part 6
End



************************************

| T   Tie note
| /   Slide up

************************************
Suggest correction
Give kudos to tab author, rate the tab!
1 2 3 4 5
comments
print report bad tab
guest
You may want to rate the tab now too:
select rating
Wanna post a correction for this tab? Suggest correction