Oops, an error
Loading. Please wait.

The Child Of Prophecy bass

146 views 1 this week
2 commentsread comments
1 2 3 4 5
3 more votes to show rating
add to favorites
×
Save as Personal and add changes to this tab that will be seen only by you. Learn more ›
×
You can save this tab as Personal to edit and correct it or add notes. All changes will be seen only by you. Learn more »
launch autoscroll
font size
0
reset
guitar tuner
edit
Autoscroll
slow
fast
+/-
esc
set tempo
stop
Author
Difficulty
Band: Kane Hodder
Song: The Child of Prophecy
Album: The Pleasure To Remain So Heartless
Transcribed by: Alex Lindgren - MSN/E-mail ant1y0u@hotmail.com

I was astonished to see the lack of Kane Hodder tabs,
so I decided to make one of my own.

First ever tab, please comment.
Open for corrections, I may have gotten a few notes wrong.
Please rate.


Intro
G|-----------------|--------------------|-------------------|------------------|
D|-----------------|--------------------|-------------------|------------------| x1
A|------15-12-10---|---------12\10\8/10-|---------10-8----7-|--------8-7-------|
E|-8---------------|-8-8-8--------------|-8-8-8--------10---|-8-8-8------8-8---|

Verse
G|-----------------|--------------------|-------------------|------------------|
D|-----------------|--------------------|-------------------|------------------|
A|--------15-12-10-|---------12\10\8/10-|---------10-8----7-|--------8-7-------|
E|-8-8-8-----------|-8-8-8--------------|-8-8-8--------10---|-8-8-8------8-8---|x2

Chorus;				      Amount of notes not correct, go with what
you hear in the song.
G|----------------|-------------------------|-------------------|------------------|
D|----------------|-------------------------|-------------------|------------------|
A|----------------|-12---------12-----------|-------------------|------------------|
E|--6-666--6-666--|----13-13-13---13-13-13--|--15-15-15-151515--|-8-88-88-88-------| x4
				       (third measure with 15s
					can be replaced with
 					10s on the A string)
Verse 2
G|-----------------|--------------------|-------------------|------------------|
D|-----------------|--------------------|-------------------|------------------|
A|--------15-12-10-|---------12\10\8/10-|---------10-8----7-|--------8-7-------|
E|-8-8-8-----------|-8-8-8--------------|-8-8-8--------10---|-8-8-8------8-8---|x2

Out-Chorus;	      Once again, amount of notes not correct, go with what you
hear in the song.
G|-----------------|-------------------|-----------------|------------|
D|-----------------|-------------------|-----------------|------------|
A|-----------------|-------------------|-----------------|------------|
E|-8-88888-88888---|---8-88888-88888---|---11-1111111111-|--8-88888---| x2

G|-----------------|------------|-------------------|-------------------|
D|-----------------|------------|-------------------|-------------------|
A|-----------------|------------|-------------------|-------------------|
E|---11-1111111111-|--8-88888---|---8-88888-88888---|---8-88888-88888---| x2

Outro
G|-----------------|------------|-----------------|------------|
D|-----------------|------------|-----------------|------------|
A|-----------------|------------|-----------------|------------|
E|---11-1111111111-|--8-88888---|---11-1111111111-|--8-88888---|

G|-----------------|------------|------------|------------|
D|-----------------|------------|------------|------------|
A|-----------------|------------|------------|------------|
E|---11-1111111111-|-1111111111-|-1111111111-|-1111111111-|

            
            
Suggest correction
Creating personal tab
Creating personal tab
You can edit any tab online and save it as your Personal.

You can edit, replace or remove any tab part or add personal notes – all changes will be seen only by you.

Personal tabs can be accessed anytime from any device, even offline.
Learn more »
Give kudos to tab author, rate the tab!
1 2 3 4 5
comments
print report bad tab
2 comments total.
+1 reply
One Armed Hans 31 Apr 13, 2008 04:23 PM

G|-----------------|
D|-----------------|
A|------15-12-10---|
E|-8---------------|

The fifteens on the A string should actually be fourteens, I wasn't sure when I tabbed it, but yeah, it should be that way for the verses and the intro.

Chorus should be fine.

0 reply
One Armed Hans 31 Jun 18, 2008 06:53 PM

Actually, now i'm not too sure anymore.
Go with whatever you think.

guest
You may want to rate the tab now too:
select rating
Wanna post a correction for this tab? Suggest correction