Oops, an error
Loading. Please wait.

Worlds End Girls Rhodo Acoustic tab

version 1
version 1

Whole song

  • Playable fingerstyle arrangement of the song.

Interactive

31 views 1 this week
no commentswrite comment
1 2 3 4 5
3 more votes to show rating
add to favorites
×
Save as Personal and add changes to this tab that will be seen only by you. Learn more ›
×
You can save this tab as Personal to edit and correct it or add notes. All changes will be seen only by you. Learn more »
launch autoscroll
font size
0
reset
how to read this tab
guitar tuner
edit
Autoscroll
slow
fast
+/-
esc
set tempo
stop
Author
Difficulty
intermediate
About this tab version
Playable fingerstyle arrangement of the song. Was this info helpful? Yes No
World's End, Girl's Rhodo (Fingerstyle)
Song by Kanon Wakeshima
Arranged By John Lee


    H        Q    Q       Q    Q    Q    Q       H        Q    Q       W                 
e|--3-------------3----|--5----3----5----7----|--8--------7---------|--5----------------|
B|--5------------------|----------------------|----------------7----|--5----------------|
G|--5--------5---------|----------------------|--8------------------|-------------------|
D|---------------------|----------------------|---------------------|-------------------|
A|---------------------|----------------------|---------------------|-------------------|
E|---------------------|----------------------|---------------------|-------------------|


    H.           Q       E  E  E  Q    E  E  E     E  Q    Q    E  E  E   
e|--3-----------------|--5--3--2----------------|------------------------|
B|--5------------0----|-----------3----3-----0--|-----0----0----------0--|
G|--------------------|-------------------2-----|---------------0--2-----|
D|--5-----------------|--2----------------------|----------2-------------|
A|--------------------|-------------------------|------------------------|
E|--------------------|----------------------3--|------------------------|


    E  E  E  E  E  E  E  E     E  E  E  E  E  E  Q       E  E  E  Q    E  E  E   
e|--0--------------0-----2--|-----------------0--2----|--5--3--2--3----3--------|
B|--------------0-----------|-----0--3--0--4----------|-------------------------|
G|--------0--2--------------|--2----------------------|-------------------2--0--|
D|-----2--------------------|--4--------1-------------|--2----------------------|
A|--3-----------------------|--------------------2----|-------------------------|
E|--------------------------|-------------------------|----------------------3--|


    S S E  E  Q    E  E  E     E  E  E  E  E  Q    E     E  E  E  E  E  Q.      
e|------0-------------------|-------------------------|--------------0--2------|
B|--0------0----------------|-------------------------|-----0--3--4------------|
G|--------------------------|-----0-------------------|------------------------|
D|------------2----------2--|-----------------2----0--|------------------------|
A|-----------------0--2-----|--0--------0--2----------|-----2------------------|
E|--------------------------|--------3----------------|-----------------2------|


     E  E  E  E  Q    E  E     E  E  E  E  E  E  E  E     E  E  E  E  E  E  E  E   
e|---------0-----0-------0--|--------0-----0--2--3--5--|--3-----2-----0--------3--|
B|------3-----3-------3-----|-----3-----3--------------|--------------------3-----|
G|*-------------------------|--------------------------|--------------------------|
D|*-------------------------|--------------------------|--------------------------|
A|---------------2-------0--|--------------------------|--2-----------------------|
E|---0----------------------|--------3-----------------|-----3-----3-----3--------|


    E  Q    Q    E  Q       E  E  E  E  Q    E  E     E  E  E  E  E  E  E  E   
e|-----2-----------------|--------0-----0-------0--|--------0-----0--7-----7--|
B|-----------------------|-----3-----3-------3-----|-----3-----3--------------|
G|----------4----2--2----|-------------------------|--------------------7-----|
D|--0--------------------|-------------------------|--------------------------|
A|------------------2----|--------------2-------0--|--------------------------|
E|-----2----2------------|--0----------------------|-----3-----------7--------|


     E  E  E  E  E  E  E  E     E  Q    Q    E  Q          Q    Q    E  E  E  E   
e|--10-----7-----7--5-----5--|--5--3----2----5--3-----||--10----7----7--5-----5--|
B|---------------------------|------------------------||-------------------------|
G|------0-----0--------0-----|-----------------------*||---7---------------7-----|
D|---------------------------|-----------------------*||-------------------------|
A|---------------------------|--3-------2-------------||-------------------------|
E|---------------------------|------------------------||-------------------------|


    E  E  Q    E.  S E  E     Q    E  Q    Q    E     Q    Q    E  Q    E   
e|--4--5--7----7-----0-----|----------0----3----7--|-------5----5--7----7--|
B|----------------------3--|--1----3---------------|-----------------------|
G|-------------------------|-----------------------|-----------------------|
D|-------------------------|---------------2-------|-----------------------|
A|-------------------------|-----------------------|--0--------------------|
E|--0----------------------|--0-------L------------|------------0----------|


    H.           E  E      Q    E   Q    E  E  E     H.           E  E   
e|------------------7--|--------7--10-------------|------------------7--|
B|---------------------|--10----------------8--7--|---------------------|
G|---------------------|--------------------------|---------------------|
D|---------------------|--------------------------|---------------------|
A|---------------------|-----------------9--------|---------------------|
E|---------------------|---7----------------------|---------------------|


    Q    E   Q    E  E  E     H        E  E  E  E     E  E  E  Q    E  E  E   
e|--5----7--10-------------|--------------3-----3--|--5-----3--2----0-----3--|
B|-------------------7--8--|-----------------------|-------------------------|
G|-------------------0-----|--------------0--------|-------------------------|
D|----------------0--------|-----------------------|-------------------------|
A|--0----------------------|-----------------2-----|-----2-------------------|
E|-------------------------|-----------0-----------|-------------------0-----|


    Q.     E  Q    E  E     Q    E  Q    E  E  E     E  Q    E  E  E  E  E   
e|--------------------5--|--5----3--2----0-----3--|----------------------5--|
B|---------2--2----------|------------------------|----------1--1-----------|
G|-----------------------|------------------------|-------------------------|
D|-----------------------|-------2----------------|-------------2-----2-----|
A|------------1----4-----|------------------1-----|----------------3--------|
E|-----------------------|---------------3--------|-----0-------------------|


    E  E  E  Q    E  E  E      E   E   E   E   E   E   E   E     E  E  E  E   E  E   E   E   
e|--5----------------------|--11--11--------------------------|--7--------8-----------------|
B|--------8--7----5--------|----------10--12------10----------|-------------------------12--|
G|--5-------------------8--|------------------11----------11--|--------8---------8--11------|
D|-----7-------------------|--------------------------13------|-----9--------10-------------|
A|-------------------------|----------------------------------|-----------------------------|
E|-------------------5-----|----------------------------------|-----------------------------|


     Q    Q     Q    Q        H         Q.      E      E  E  E  E  E  E   E   E   
e|--14---------11---------|--12--------14------15--|-----------------------------|
B|------------------------|------------------------|-----------------------------|
G|------------------------|------------------------|---------------------11--12--|
D|------------------------|------------------------|-----------------------------|
A|------------------------|------------------------|-----------------------------|
E|-------------------9----|------------14----------|---0--0--0--0--0--0----------|


    E   E   E  E   E   E   E   E      E   E   E   E   E   E  E  E     E  E  E  E  E   E  E  E   
e|---------12-----10--------------|--------------------------------|--------8-----7--10-----7--|
B|--------------------12--10------|--------------------------7--8--|---------------------------|
G|-----11---------------------12--|--------------------------------|-----8---------------------|
D|--------------------------------|--------------------------------|---------------------------|
A|--------------------------------|--10--10--10--10--10--10--------|-----------9---------------|
E|--0----------0------------------|--------------------------------|---------------------7-----|


     E  E  E  E  E  Q    E      E  E  E   E  E  E  E  E     E  E  E  E  E  Q    E   
e|------------------7-------|---------7---------0-----2--|--3----------------------|
B|--10--8--7-----8-------7--|---8--------10--------------|----------------------4--|
G|--------------------------|----------------------------|-----3--3--3--2--0-------|
D|--------------------------|------9---------------------|-------------------------|
A|------------7-------------|--10------------7-----2-----|-------------------------|
E|------7-------------------|----------------------------|--3----------------------|


    E  E  E  E   E   Q    E     E   E  E  E  E  E  E  E     E   E   E  E   E   E   E   E   
e|-----------8------10----7--|---------------------------|---------12-----10--------------|
B|-----4---------------------|-----10--8-----------7--8--|--------------------12--10------|
G|--------------10-----------|---------------------------|-----11---------------------12--|
D|-------------------9-------|---------------------------|--------------------------------|
A|--6------------------------|------------7-----9--------|--------------------------------|
E|---------------------------|--7------------7-----------|--0----------0------------------|


    E   E   E   Q     Q     E      E  Q    E  E   Q    E     E   E  E  E  E  E  E  E   
e|---------14--15--------------|------7----8-----10----7--|--L------------------------|
B|-----15-------------8----10--|---L----------------------|-----10--8-----------------|
G|-----------------------------|--------------------------|---------------------9--7--|
D|-----------------------------|---7--------------0-------|---------------------------|
A|-------------------10--------|--------------------------|--0---------0--0--0--------|
E|-----------------------------|--------------------------|---------------------------|


    E  E  E  E  E  E  E  E      E  E  E   E  E  Q    E     E   Q     Q     E   E   E   
e|--------------------------|-------------------7----8--|--L--10----------------------|
B|-----8--------------7--8--|--10-----8--10-------------|-----------12----10----------|
G|--9--------------9--------|---------------------------|-------------------------12--|
D|-----------9--------------|---------------------------|-----------------------------|
A|--------------------------|----------------7----------|-----------------------------|
E|--------0-----0--7--------|------7------------7-------|-----------10--------10------|


     Q.      Q.      Q        H         Q.      E      Q     Q.      E   E   E            
e|------------------15----|---L----------------11--|---L----16------18--18--18--|-------||
B|----------13------------|------------11----------|----------------------------|-------||
G|--10--------------------|------------------------|----------------------------|-------||
D|------------------------|------------------------|----------------------------|-------||
A|------------------------|------------------------|----------------------------|-------||
E|--12--------------------|---0--------10----------|----------------------------|-------||


Duration Legend
---------------
W - whole
H - half
Q - quarter
E - 8th
S - 16th
. - note dotted


************************************

| * reprise
| L let ring

************************************

            
            
Suggest correction
Creating personal tab
Creating personal tab
You can edit any tab online and save it as your Personal.

You can edit, replace or remove any tab part or add personal notes – all changes will be seen only by you.

Personal tabs can be accessed anytime from any device, even offline.
Learn more »
Give kudos to tab author, rate the tab!
1 2 3 4 5
comments
print report bad tab
guest
You may want to rate the tab now too:
select rating
Wanna post a correction for this tab? Suggest correction